Sound will begin in 5 seconds

Think of Me

01234567891011121314151617181920212223
E
B
G
D
A
E
B
0 1 2 3 4 5 6 7 8 9 10 11 12 13 14 15 16 17 18 19 20 21 22 23
Song Science #1: How Pros Use 6 Chords to Write Hit Songs
(/) Slide Up  (\) Slide Down  (h) Hammer On  (p) Pull Off  (b) Bend (r) Release (v) Vibrato

Stave 1:

E|--------------------------------------10-------------------------------------------10------
B|----7--8--7-----------10------------------10--8--7--8--7-----------10------------------10--
G|-------------9--9--9------9--7--7--7----------------------9--9--9------9--7--7--7----------
D|-------------------------------------------------------------------------------------------
A|-------------------------------------------------------------------------------------------
E|-------------------------------------------------------------------------------------------

Stave 2:

E|-------------------------------7--9--12--12--10--7-----------------------7------------------------
B|----7--8--7--8--7--8--7--8--7-----------------------7-----------7--8--7-----10--7-----7--8--------
G|-------------------------------------------------------9--7--9---------------------9--------6--7--
D|--------------------------------------------------------------------------------------------------
A|--------------------------------------------------------------------------------------------------
E|--------------------------------------------------------------------------------------------------

Stave 3:

E|----------------------------------8--10--13--13--11--8-------------------------8-------------------------
B|----9--8--9--8--9--8--9--8--9--8------------------------8-------------8--9--8-----11--8------8--9--------
G|-----------------------------------------------------------10--8--10---------------------10--------7--8--
D|---------------------------------------------------------------------------------------------------------
A|---------------------------------------------------------------------------------------------------------
E|---------------------------------------------------------------------------------------------------------

Stave 4:

E|-------11--10--10--8------9---------
B|----8-----------------11-----9------
G|--------------------------------10--
D|------------------------------------
A|------------------------------------
E|------------------------------------

Stave 5:

E|-----------------8--------------------
B|--------8--9--8-----11--8-------------
G|----10---------------------10------7--
D|-------------------------------10-----
A|--------------------------------------
E|--------------------------------------

http://www.guitartabcreator.com
Guitar Tab Creator is intended to store guitar tab created through the tool. It currently does not support in-line text editing. Any text you place in here will be lost. If you need to comment on your tab, please use the "Tab Notes" section located below.