Sound will begin in 5 seconds

these days bass- bamboo

01234567891011121314151617181920212223
E
B
G
D
A
E
B
0 1 2 3 4 5 6 7 8 9 10 11 12 13 14 15 16 17 18 19 20 21 22 23
Song Science #1: How Pros Use 6 Chords to Write Hit Songs
(/) Slide Up  (\) Slide Down  (h) Hammer On  (p) Pull Off  (b) Bend (r) Release (v) Vibrato

Stave 1:

E|-----------------------------------------------------
B|-----------------------------------------------------
G|-----------------------------------------------------
D|-----------------------------------------5-----7/9-5-
A|---------------3---------------------5h7---7p5-------
E|-3-3--3-3-3--3---3-1-1--5-5-6\--3-3------------------

Stave 2:

E|-------------------------------------------------------
B|-------------------------------------------------------
G|-------------------------------------------------------
D|----------------------------7-5---3----------5h7p5---3-
A|-----------------2-5------5-----5--------3-5-------5---
E|-0h1-1-3-3-1-3-5-----3-3------------1-1----------------

Stave 3:

E|-------------------------------------
B|-------------------------------------
G|---------------------------2---------
D|-----------------------3-5---5-3-----
A|-----2-2-3---2-3-5---3-----------5---
E|-3-3-------3-------1---------------3-

Stave 4:

E|-----------------------------------------------------------------
B|-----------------------------------------------------------------
G|-----------------------------------------------------------------
D|-----7-5-------5-------------3----------5-7h9p7\5----------------
A|---------7p5h7---------------------------------------------------
E|-3-3--------------1-1--1-1-1-----3-3--3-----------5-5--5-5-8-7-8-

Stave 5:

E|-----------------------------------------------------------
B|-----------------------------------------------------------
G|-------------------------------------------------2-4-------
D|--------5---3-4-5----------------------3-------5-----5-5---
A|------5---5-------5----------------2-3-------5-------------
E|-3-3----------------3-1-1--1-0-1-3-------3-3-------------3-

Stave 6:

E|-----------------------------
B|-----------------------------
G|-----------------------------
D|-------------------------3---
A|-------------2-2-3-3-5-5---5-
E|-1-1-3-3-5-5-----------------

http://www.guitartabcreator.com
Guitar Tab Creator is intended to store guitar tab created through the tool. It currently does not support in-line text editing. Any text you place in here will be lost. If you need to comment on your tab, please use the "Tab Notes" section located below.