Les Sans Papiers - Tatou

Chords

01234567891011121314151617181920212223
E
B
G
D
A
E
B
0 1 2 3 4 5 6 7 8 9 10 11 12 13 14 15 16 17 18 19 20 21 22 23
(/) Slide Up  (\) Slide Down  (h) Hammer On  (p) Pull Off  (b) Bend (r) Release (v) Vibrato

E|--------------7-----------7--8--10------10------------8--7--5-----3--5--7--5------3--2-------
B|-------------------8--10--0-----------------12------------------------------------3----------
G|--------0--4-------0----------------------------11----------------2--------------------------
D|-----0--------------------------0-------12--0------------------2---------------------0----0--
A|------------------------------------10----------------------0--------------------------------
E|--3------------------------------------------------------------------------------------------



E|--8p7p5--5p3p2----5--------7----5----3-----------------------0------
B|---------------------8--7-----------------3---------------0---------
G|--------------------------------0----------------------0------------
D|------------------------------------------0---------2---------------
A|-------------------------------------------------2------------------
E|--------------------------------------------------------------------



E|--
B|--
G|--
D|--
A|--
E|--
							http://www.guitartabcreator.com
[[],[],[],[],[],[]]

Member for

7 years 7 months
Submitted by azupsich on Mon, 2013-09-09 10:01