Smashing Pumpkins - The Chimera

Chords

01234567891011121314151617181920212223
E
B
G
D
A
E
B
0 1 2 3 4 5 6 7 8 9 10 11 12 13 14 15 16 17 18 19 20 21 22 23
(/) Slide Up  (\) Slide Down  (h) Hammer On  (p) Pull Off  (b) Bend (r) Release (v) Vibrato

E|-----------------------------------------------------|--
B|-----------------------------------------------------|--
G|-----------------------------------------------------|--
D|-----------------------------------------------------|--
A|--12p9--9--12p9--9--12p9--9--10p9--9--10p9--9--10p9--|--
D|-----------------------------------------------------|--



E|------------------------------
B|------------------------------
G|------------------------------
D|--11h12p11\9--11p9\7--9v--11--
A|------------------------------
D|------------------------------



E|-----------------------------
B|-----------------------------
G|-----------------------------
D|--0------12\2--------5----12\
A|--0------12-2--------5----12-
D|--0------12-2--------5----12-



E|--
B|--
G|--
D|--
A|--
E|--
							http://www.guitartabcreator.com
[[],[],[],[],[],[]]

Member for

8 years
Submitted by audioidkid on Sat, 2012-11-03 19:13