Picking Exercise

Chords

01234567891011121314151617181920212223
E
B
G
D
A
E
B
0 1 2 3 4 5 6 7 8 9 10 11 12 13 14 15 16 17 18 19 20 21 22 23
(/) Slide Up  (\) Slide Down  (h) Hammer On  (p) Pull Off  (b) Bend (r) Release (v) Vibrato
(d) downstroke (u) upstroke


   d d d u d d u d d u u d d u      u u d    u u d u d  u  d u d  u d u d  u d  u d  
E|-------------------------5-8/10p7---------------------------------------------------
B|-----------------5-8---6----------8---10p7------------------------------------------
G|-----------4---5-----7--------------9------7----------------------------------------
D|-----4---5---7-------------------------------9-10-7-9----7--------------------------
A|---5---7----------------------------------------------10---9-10-7-9----7------------
E|-7------------------------------------------------------------------10---8-10-7-8\5-

   4 2 1 4 2 1 4 1 1 4 3 2 1 4 4  1 2 3 4  1 1 3 4  1 3 4  1 3 4  1 3 4  1 2 4  1 2 2


by audioidkid
   							http://www.guitartabcreator.com
Tab Notes

(/) Slide Up  (\) Slide Down  (h) Hammer On  (p) Pull Off  (b) Bend (r) Release (v) Vibrato
(d) downstroke (u) upstroke


   d d d u d d u d d u u d d u      u u d    u u d u d  u  d u d  u d u d  u d  u d  
E|-------------------------5-8/10p7---------------------------------------------------
B|-----------------5-8---6----------8---10p7------------------------------------------
G|-----------4---5-----7--------------9------7----------------------------------------
D|-----4---5---7-------------------------------9-10-7-9----7--------------------------
A|---5---7----------------------------------------------10---9-10-7-9----7------------
E|-7------------------------------------------------------------------10---8-10-7-8\5-

   4 2 1 4 2 1 4 1 1 4 3 2 1 4 4  1 2 3 4  1 1 3 4  1 3 4  1 3 4  1 3 4  1 2 4  1 2 2


by audioidkid
                               http://www.guitartabcreator.com

[["7",".",".",".",".",".",".",".",".",".",".",".",".",".",".",".",".",".",".",".",".",".",".",".",".",".",".",".",".",".",".",".",".","10",".","8","10","7","8","\\","5"],[".","5",".","7",".",".",".",".",".",".",".",".",".",".",".",".",".",".",".",".",".",".",".",".",".",".",".","10",".","9","10","7","9",".","7",".",".",".",".",".","."],[".",".","4",".","5",".","7",".",".",".",".",".",".",".",".",".",".",".",".",".",".",".",".","9","10","7","9",".","7",".",".",".",".",".",".",".",".",".",".",".","."],[".",".",".",".",".","4",".","5",".",".","7",".",".",".",".",".",".",".",".","9",".",".","7",".",".",".",".",".",".",".",".",".",".",".",".",".",".",".",".",".","."],[".",".",".",".",".",".",".",".","5","8",".","6",".",".",".",".",".",".","8",".","10","7",".",".",".",".",".",".",".",".",".",".",".",".",".",".",".",".",".",".","."],[".",".",".",".",".",".",".",".",".",".",".",".","5","8","/","10","p","7",".",".",".",".",".",".",".",".",".",".",".",".",".",".",".",".",".",".",".",".",".",".","."]]

Member for

8 years
Submitted by audioidkid on Mon, 2012-12-03 16:09