It's all you know 4

Chords

01234567891011121314151617181920212223
E
B
G
D
A
E
B
0 1 2 3 4 5 6 7 8 9 10 11 12 13 14 15 16 17 18 19 20 21 22 23
(/) Slide Up  (\) Slide Down  (h) Hammer On  (p) Pull Off  (b) Bend (r) Release (v) Vibrato
E|----------------------------------------------------------------------------
B|----------------------------------------------------------------------------
G|----------------------------------------------------------------------------
D|----------------------------------------------------------------------------
A|-----17---19-----15---17-20-19---15---12---17-19-----15---17---13-12---10-9-
E|-0-0----0----0-0----0----------0----0----0-------0-0----0----0-------0------



E|-----------------------------------------------------------------
B|-----------------------------------------------------------------
G|-----------------------------------------------------------------
D|-----------------------------------------------------------------
A|-----5---7-----3---5---8-7---3-------5---7-----3---5-------------
E|-0-0---0---0-0---0---0-----0---0-0-0---0---0-0---0---0-8-7-0-5-4-



E|-------------------------------------------
B|-------------------------------------------
G|-------------------------------------------
D|--------10------------9--------------------
A|--0--0--12------0--0--10--------9--10--12--
E|--0--0--0-------0--0--0---------0--0---0---



E|--------------------------
B|--------------------------
G|--------14------------12--
D|--------------------------
A|--0--0--12------0--0--10--
E|--0--0----------0--0------



E|--
B|--
G|--
D|--
A|--
E|--
							http://www.guitartabcreator.com
[[],[],[],[],[],[]]

Member for

8 years
Submitted by audioidkid on Tue, 2013-11-12 15:58