Appreggio-Pentatonic practice pattern.

Chords

01234567891011121314151617181920212223
E
B
G
D
A
E
B
0 1 2 3 4 5 6 7 8 9 10 11 12 13 14 15 16 17 18 19 20 21 22 23
Cool Practice Idea.  Play in 4/4 and in 3/4.  Down Up Strokes ONLY!!!!

(/) Slide Up  (\) Slide Down  (h) Hammer On  (p) Pull Off  (b) Bend (r) Release (v) Vibrato


E|------------------------------------10--13--13--10------------------------------------------
B|----------------------------10--13------------------13--10----------------------------------
G|---------------------7--10----------------------------------12--10--------------------------
D|--------------7--10-------------------------------------------------12--10------------------
A|--------5--8----------------------------------------------------------------12--10----------
E|--5--8------------------------------------------------------------------------------13--10--



E|---------------------------------12-15-15-13-----------------------------------
B|------------------------10/12-14-------------15-13-----------------------------
G|-------------------9-12----------------------------14-12-----------------------
D|------------7/9-11---------------------------------------15-12-----------------
A|-------7-10----------------------------------------------------15-12-----------
E|-5/7-9---------------------------------------------------------------15-13-10v-

by audioidkid.
							http://www.guitartabcreator.com
[[],[],[],[],[],[]]

Member for

8 years
Submitted by audioidkid on Sun, 2012-12-02 11:10