Sound will begin in 5 seconds

Valami cím ami nem tudom mi lesz :DD

Chords
01234567891011121314151617181920212223
E
B
G
D
A
E
B
0 1 2 3 4 5 6 7 8 9 10 11 12 13 14 15 16 17 18 19 20 21 22 23
Song Science #1: How Pros Use 6 Chords to Write Hit Songs
(/) Slide Up  (\) Slide Down  (h) Hammer On  (p) Pull Off  (b) Bend (r) Release (v) Vibrato

Stave 1:

E|---------------------------------------------------------|-
B|---------------------------------------------------------|-
G|---------------------------------------------------------|-
D|---------------------------------------------------------|-
A|---------------------------------------------------------|-
D|-5-5----1-1----5-5----3-3-------5-5----1-1----5-5----3-3-|-

Stave 2:

E|---------------------------------------------------------|-
B|---------------------------------------------------------|-
G|---------------------------------------------------------|-
D|---------------------------------------------------------|-
A|---------------------------------------------------------|-
D|-5-5----1-1----5-5----3-3-------5-5----3-3----5-5----1-1-|-

Stave 3:

E|-------------------------------------------------------------------------
B|-------------------------------------------------------------------------
G|-----7--------3--------7--------5-----------7--------3--------7--------5-
D|---7--------3--------7--------5-----------7--------3--------7--------5---
A|-5--------1--------5--------3-----------5--------1--------5--------3-----
D|-------------------------------------------------------------------------

Stave 4:

E|-----------------------------------------------------------------------|-
B|-----------------------------------------------------------------------|-
G|-----7--------3--------7--------5---------7--------3--------7------5-5-|-
D|---7--------3--------7--------5-------------7--------3--------7----5-5-|-
A|-5--------1--------5--------3-----------5--------1--------5--------3-3-|-
D|-----------------------------------------------------------------------|-

Stave 5:

E|-----------------------------------------------------------------------------
B|-----------------------------------------------------------------------------
G|-----------------------------------------------------------------------------
D|-5-5----1-1----5-5----3-3-------3-3-------5-5----1-1----5-5----3-3-------3-3-
A|-5-5----1-1----5-5----3-3-------3-3-------5-5----1-1----5-5----3-3-------3-3-
D|-5-5----1-1----5-5----3-3-------3-3-------5-5----1-1----5-5----3-3-------3-3-

Stave 6:

E|-------------------------------------------------------------------|-
B|-------------------------------------------------------------------|-
G|-------------------------------------------------------------------|-
D|-5-5----1-1----5-5----3-3-------3-3-------5-5----3-3----5-5----1-1-|-
A|-5-5----1-1----5-5----3-3-------3-3-------5-5----3-3----5-5----1-1-|-
D|-5-5----1-1----5-5----3-3-------3-3-------5-5----3-3----5-5----1-1-|-

http://www.guitartabcreator.com
Guitar Tab Creator is intended to store guitar tab created through the tool. It currently does not support in-line text editing. Any text you place in here will be lost. If you need to comment on your tab, please use the "Tab Notes" section located below.