Sound will begin in 5 seconds

Song 3

Chords
01234567891011121314151617181920212223
E
B
G
D
A
E
B
0 1 2 3 4 5 6 7 8 9 10 11 12 13 14 15 16 17 18 19 20 21 22 23
Song Science #1: How Pros Use 6 Chords to Write Hit Songs
(/) Slide Up  (\) Slide Down  (h) Hammer On  (p) Pull Off  (b) Bend (r) Release (v) Vibrato

Stave 1:

D|-----7-----7---------7-----7---------7-----7---------7-----7--2--2--5--5--------0--0--
A|-----8-----8---------8-----8---------8-----8---------8-----8--3--3--6--6--------1--1--
F|-----9-----9---------9-----9---------9-----9---------9-----9--4--4--7--7--------2--2--
C|-----9-----9---------9-----9---------9-----9---------9-----9--4--4--7--7--7--7--2--2--
G|-----7-----7---------7-----7---------7-----7---------7-----7--2--2--5--5--7--7--------
D|--0-----0---------0-----0---------0-----0---------0-----0-----------------5--5--------

Stave 2:

D|------------------------------------------------
A|------------------------------------------------
F|------------------------------------------------
C|----------0-------0---------0----------------0--
G|-------0-------------2---------2----------0-----
D|--2\3----------5------------------5--2\3--------

Stave 3:

D|----------------------------
A|----------------------------
F|----------4--------------7--
C|-------5------------7\9-----
G|----------------------------
D|--2\3------------5----------

Stave 4:

D|--------------------------------------------------------------------------------------------
A|--------------------------------------------------------------------------------------------
F|------------------------------------------------------------14----------------------14------
C|---------8------8-------------8------8--------------12----------12----------12----------12--
G|-----10-----10-----10-----10-----10-----10------14------14--------------14------14----------
D|--8--------------------8--------------------12----------------------12----------------------

Stave 5:

D|--------------------------------------------------------------------------------------------
A|--------------------------------------------------------------------------------------------
F|--------------------------------------------------------------------------------------------
C|---------8------8-------------8------8--------------12------12--------------12------12------
G|-----10-----10-----10-----10-----10-----10------14------14------14------14------14------14--
D|--8--------------------8--------------------12----------------------12----------------------

http://www.guitartabcreator.com
Guitar Tab Creator is intended to store guitar tab created through the tool. It currently does not support in-line text editing. Any text you place in here will be lost. If you need to comment on your tab, please use the "Tab Notes" section located below.