Sound will begin in 5 seconds

Szám p

Chords
01234567891011121314151617181920212223
E
B
G
D
A
E
B
0 1 2 3 4 5 6 7 8 9 10 11 12 13 14 15 16 17 18 19 20 21 22 23
Song Science #1: How Pros Use 6 Chords to Write Hit Songs
(/) Slide Up  (\) Slide Down  (h) Hammer On  (p) Pull Off  (b) Bend (r) Release (v) Vibrato

Stave 1:

E|--------------------------------------------------4--3--0--
B|-----------------------------------------------------------
G|-----------------------------------------------------------
D|-----------------------------------------------------------
A|-----------------------------------------------------------
E|--0--1--1--1--1--1--0--1--1--1--1--1--2--3--2--0-----------

Stave 2:

E|--4--3--0--4--3--0--4--3--4--3--0--4--3--0--4--3--4--3--0--4--3--0--
B|--------------------------------------------------------------------
G|--------------------------------------------------------------------
D|--------------------------------------------------------------------
A|--------------------------------------------------------------------
E|--------------------------------------------------------------------

Stave 3:

E|--------------------------------------------------9--8--0--
B|-----------------------------------------------------------
G|-----------------------------------------------------------
D|-----------------------------------------------------------
A|-----------------------------------------------------------
E|--2--2--2--2--5--5--2--2--2--2--1--1--2--3--2--0-----------

Stave 4:

E|--9--8--0--9--8--0--9--8--9--8--0--9--8--0--9--8--9--8--0--9--8--0--
B|--------------------------------------------------------------------
G|--------------------------------------------------------------------
D|--------------------------------------------------------------------
A|--------------------------------------------------------------------
E|--------------------------------------------------------------------

Stave 5:

E|-----------------------------------------------13--12--0--
B|----------------------------------------------------------
G|----------------------------------------------------------
D|----------------------------------------------------------
A|----------------------------------------------------------
E|--5--5--5--5--8--8--5--5--5--5--2--1--3--2--0-------------

Stave 6:

E|--13--12--0--13--12--0--13--12--13--12--0--13--12--0--13--12--13--12--0--13--12--0--
B|------------------------------------------------------------------------------------
G|------------------------------------------------------------------------------------
D|------------------------------------------------------------------------------------
A|------------------------------------------------------------------------------------
E|------------------------------------------------------------------------------------

Stave 7:

E|--12--12--12--13--13--13--12--12--12--11--11--11--12--12--12--13--13--13--12--12--12--11--11--11--
B|--------------------------------------------------------------------------------------------------
G|--------------------------------------------------------------------------------------------------
D|--------------------------------------------------------------------------------------------------
A|--------------------------------------------------------------------------------------------------
E|--------------------------------------------------------------------------------------------------

Stave 8:

E|--12--12--12--13--13--13--12--12--12--11--11--11--12--12--12--13--13--13--12--12--12--11--11--11--
B|------12--12--13--13--13--12--12--12--11--11--11--12--12--12--13--13--13--12--12--12--11--11--11--
G|--------------------------------------------------------------------------------------------------
D|--------------------------------------------------------------------------------------------------
A|--------------------------------------------------------------------------------------------------
E|--------------------------------------------------------------------------------------------------

Stave 9:

E|--13--13--13--15--15--15--13--13--13--17--17--17--13--13--13--18--18--18--
B|--13--13--13--15--15--15--13--13--13--17--17--17--13--13--13--18--18--18--
G|--------------------------------------------------------------------------
D|--------------------------------------------------------------------------
A|--------------------------------------------------------------------------
E|--------------------------------------------------------------------------

Stave 10:

E|--13--13--13--12--12--12--11--11--11--11--11--11--
B|--13--13--13--12--12--12--11--11--11--11--11--11--
G|--------------------------------------0---0---0---
D|--------------------------------------------------
A|--------------------------------------------------
E|--------------------------------------------------

http://www.guitartabcreator.com
Guitar Tab Creator is intended to store guitar tab created through the tool. It currently does not support in-line text editing. Any text you place in here will be lost. If you need to comment on your tab, please use the "Tab Notes" section located below.