Sound will begin in 5 seconds

Solo

01234567891011121314151617181920212223
E
B
G
D
A
E
B
0 1 2 3 4 5 6 7 8 9 10 11 12 13 14 15 16 17 18 19 20 21 22 23
Song Science #1: How Pros Use 6 Chords to Write Hit Songs
(/) Slide Up  (\) Slide Down  (h) Hammer On  (p) Pull Off  (b) Bend (r) Release (v) Vibrato

Stave 1:

E|-----------------------------5/8--12--14--15--14--12h14p12--12---------12--------------
B|-----------------------5--7-------------------------------------15b17------15b17--15v--
G|---------------2--4/6------------------------------------------------------------------
D|----------2h4--------------------------------------------------------------------------
A|--0--3h4-------------------------------------------------------------------------------
E|---------------------------------------------------------------------------------------

Stave 2:

E|------------------------------------------------------------------------------------------------
B|--13----------13--13------13h15p13------13h15p13------13h15p13------15b17--15b17--15p13--15b17--
G|------14--14----------14------------14------------14------------14------------------------------
D|------------------------------------------------------------------------------------------------
A|------------------------------------------------------------------------------------------------
E|------------------------------------------------------------------------------------------------

Stave 3:

E|--15--12--------------------------------------------15--15---------15--15---------15--15--
B|----------15--12--15p12------12--------------15b17----------15b17----------15b17----------
G|-------------------------14------14p12----------------------------------------------------
D|----------------------------------------14v-----------------------------------------------
A|------------------------------------------------------------------------------------------
E|------------------------------------------------------------------------------------------

Stave 4:

E|---------15---------15---------15------------------------------------------------------------
B|--15b17------15b17------15b17------15b17v--15p12------12--12h15p12------12h15p12------15b17--
G|--------------------------------------------------14----------------14------------14---------
D|---------------------------------------------------------------------------------------------
A|---------------------------------------------------------------------------------------------
E|---------------------------------------------------------------------------------------------

Stave 5:

E|--17b19--17--15-----------------------------------------------------
B|-----------------19--15--15h19p15------19--15h17p15------15---------
G|-----------------------------------17----------------17------17b19--
D|--------------------------------------------------------------------
A|--------------------------------------------------------------------
E|--------------------------------------------------------------------

http://www.guitartabcreator.com
Guitar Tab Creator is intended to store guitar tab created through the tool. It currently does not support in-line text editing. Any text you place in here will be lost. If you need to comment on your tab, please use the "Tab Notes" section located below.