compo

Chords

01234567891011121314151617181920212223
E
B
G
D
A
E
B
0 1 2 3 4 5 6 7 8 9 10 11 12 13 14 15 16 17 18 19 20 21 22 23
(/) Slide Up  (\) Slide Down  (h) Hammer On  (p) Pull Off  (b) Bend (r) Release (v) Vibrato


(/) Slide Up  (\) Slide Down  (h) Hammer On  (p) Pull Off  (b) Bend (r) Release (v) Vibrato


E|------------------------------------|  eto un sa una rolling ng intro
B|------------------------------------|
G|---------------------7-9-7----------|
D|--8/10-8-7-7---------7-9--9-7-------|
A|----------9-9-7-5-7-9--------9-7-5--|
D|----------------------------------7-|



E|---------------------------------------------------|  eto rolling ng ending riff
B|---------------------------------------------------|
G|---------------------------------------------------|
D|---------------------------------------------------|
A|---------------------------------------------------|
D|--0-0-0-0--0-0-0-0-0-0-0-0-8-7-5-7-5-4-5-4-2-3-1-4-|
							
[[],[],[],[],[],[]]

Member for

8 years 8 months
Submitted by arche on Wed, 2011-10-26 04:17