Sound will begin in 5 seconds

Pentatonica LA

01234567891011121314151617181920212223
E
B
G
D
A
E
B
0 1 2 3 4 5 6 7 8 9 10 11 12 13 14 15 16 17 18 19 20 21 22 23
Song Science #1: How Pros Use 6 Chords to Write Hit Songs
(/) Slide Up  (\) Slide Down  (h) Hammer On  (p) Pull Off  (b) Bend (r) Release (v) Vibrato

Stave 1:

E|---------------------2-5---------------------5-7----------------------7-9-
B|-----------------2-5---------------------5-7---------------------7-10-----
G|-------------2-4---------------------4-6---------------------6-9----------
D|---------2-4---------------------4-7---------------------7-9--------------
A|-----2-4---------------------4-7---------------------7-9------------------
E|-2-5---------------------5-7---------------------7-9----------------------

Stave 2:

E|---------------------------9-12-------------------------------12-14-
B|---------------------10-12------------------------------12-14-------
G|----------------9-11------------------------------11-14-------------
D|-----------9-11-----------------------------11-14-------------------
A|------9-12----------------------------12-14-------------------------
E|-9-12---------------------------12-14-------------------------------

Stave 3:

E|-------------------------------14-17-
B|-------------------------14-17-------
G|-------------------14-16-------------
D|-------------14-16-------------------
A|-------14-16-------------------------
E|-14-17-------------------------------

http://www.guitartabcreator.com
Guitar Tab Creator is intended to store guitar tab created through the tool. It currently does not support in-line text editing. Any text you place in here will be lost. If you need to comment on your tab, please use the "Tab Notes" section located below.