Sound will begin in 5 seconds

Escala DO Maior

01234567891011121314151617181920212223
E
B
G
D
A
E
B
0 1 2 3 4 5 6 7 8 9 10 11 12 13 14 15 16 17 18 19 20 21 22 23
Song Science #1: How Pros Use 6 Chords to Write Hit Songs
(/) Slide Up  (\) Slide Down  (h) Hammer On  (p) Pull Off  (b) Bend (r) Release (v) Vibrato

Stave 1:

E|-------------------------------3-5-7-------------------------------5-7-8-
B|-------------------------3-5-6-------------------------------5-6-8-------
G|-------------------2-4-5-------------------------------4-5-7-------------
D|-------------2-3-5-------------------------------3-5-7-------------------
A|-------2-3-5-------------------------------3-5-7-------------------------
E|-1-3-5-------------------------------3-5-7-------------------------------

Stave 2:

E|--------------------------------7-8-10-------------------------------------8-10-12-
B|-------------------------6-8-10------------------------------------8-10-12---------
G|-------------------5-7-9------------------------------------7-9-10-----------------
D|-------------5-7-9-----------------------------------7-9-10------------------------
A|-------5-7-8----------------------------------7-8-10-------------------------------
E|-5-7-8---------------------------------7-8-10--------------------------------------

Stave 3:

E|------------------------------------------10-12-13-------------------------------------
B|---------------------------------10-12-13----------------------------------------------
G|-------------------------9-10-12-------------------------------------------------------
D|-----------------9-10-12---------------------------------------------------------------
A|---------8-10-12-----------------------------------------------------------------------
E|-8-10-12-------------------------------------------------------------------------------

Stave 4:

E|----------------------------------------------12-13-15-------------------
B|-------------------------------------12-13-15----------------------------
G|----------------------------10-12-14-------------------------------------
D|-------------------10-12-14----------------------------------------------
A|----------10-12-14-------------------------------------------------------
E|-10-12-13----------------------------------------------------------------

Stave 5:

E|----------------------------------------------13-15-17-
B|-------------------------------------13-15-17----------
G|----------------------------12-14-16-------------------
D|-------------------12-14-15----------------------------
A|----------12-14-15-------------------------------------
E|-12-13-15----------------------------------------------

http://www.guitartabcreator.com
Guitar Tab Creator is intended to store guitar tab created through the tool. It currently does not support in-line text editing. Any text you place in here will be lost. If you need to comment on your tab, please use the "Tab Notes" section located below.