Sound will begin in 5 seconds

We Are The Champions - Queen

01234567891011121314151617181920212223
E
B
G
D
A
E
B
0 1 2 3 4 5 6 7 8 9 10 11 12 13 14 15 16 17 18 19 20 21 22 23
Song Science #1: How Pros Use 6 Chords to Write Hit Songs
(/) Slide Up  (\) Slide Down  (h) Hammer On  (p) Pull Off  (b) Bend (r) Release (v) Vibrato

Stave 1:

E|------------------------------------------------------
B|--8---------8--------9---------8---------8-----11--9--
G|--8------8-----8-----8--8------8------8-----8---------
D|--8---8-----------8--8-----8v--8---8------------------
A|--10---------------------------10---------------------
E|------------------------------------------------------

Stave 2:

E|--------------------
B|--------------------
G|--------3-----3--5--
D|--8--8--5--3--3--5--
A|--6--5--3--3--1--3--
E|-----------1-----3--

Stave 3:

E|---------------------------------------------------------------
B|---------------------------------------------------------------
G|--2--------5--5--5--7-----5--2--------5--5--5------------------
D|--3--------7--7--7--7--3--5--3--------7--7--7--8--8------------
A|--3--------7--7--7--5--3--3--3--------7--7--7--8--8------------
E|--1--1--3--5--5--5-----1--3--1--1--3--5--5--5--6--6--5--3--2v--

Stave 4:

E|----------------------
B|----------------------
G|--3----------------2--
D|--5--3-----2v--5v--3--
A|--5--1--4----------3--
E|--3----------------1--

Stave 5:

E|----------------------------------------------
B|--6--------6p4-----------9p6------------------
G|-----3----------5-------------8p5-------------
D|--------3----------6--8------------5--5v------
A|----------------------------------------------
E|------------------------------------------1v--

http://www.guitartabcreator.com
Guitar Tab Creator is intended to store guitar tab created through the tool. It currently does not support in-line text editing. Any text you place in here will be lost. If you need to comment on your tab, please use the "Tab Notes" section located below.