Sound will begin in 5 seconds

Real Estate - Had To Hear

01234567891011121314151617181920212223
E
B
G
D
A
E
B
0 1 2 3 4 5 6 7 8 9 10 11 12 13 14 15 16 17 18 19 20 21 22 23
Song Science #1: How Pros Use 6 Chords to Write Hit Songs
(/) Slide Up  (\) Slide Down  (h) Hammer On  (p) Pull Off  (b) Bend (r) Release (v) Vibrato

Stave 1:

E|-------------------------
B|-------5-5-7-----7---7---
G|---4-7-------7-4---7---7-
D|-7-----------------------
A|-------------------------
E|-------------------------

Stave 2:

E|---7-5------7-5------7-5---------------
B|-5-----7-5------7-5------7-5-3-----5-7-
G|-------------------------------4-7-----
D|---------------------------------------
A|---------------------------------------
E|---------------------------------------

Stave 3:

E|----------------------------------------------------------
B|-7-5-5-7----------------5-5--7-7--10-10--10---12p11-12p11-
G|---------7-4------4-7-4-----------------------------------
D|-------------7--7-----------------------------------------
A|----------------------------------------------------------
E|----------------------------------------------------------

Stave 4:

E|-----------------10------------------------------------
B|-5-5--7-7--10-10------5-5--7-7--10-10--10--12p11-12p11-
G|-------------------------------------------------------
D|-------------------------------------------------------
A|-------------------------------------------------------
E|-------------------------------------------------------

Stave 5:

E|------------------10-
B|--5-5--7-7--10-10----
G|---------------------
D|---------------------
A|---------------------
E|---------------------

Stave 6:

E|-7-5--------------
B|-----7-5-3--5-5-5-
G|------------------
D|------------------
A|------------------
E|------------------

Stave 7:

E|----------------------------------------------------------------------------------
B|-5-5-7----------------5-5-7-----7---7----7-5-5-7----------------5-5-7-----7---7---
G|-------7-4------4-7-4-------7-4---7---7----------7-4------4-7-4-------7-4---7---7-
D|-----------7--7--------------------------------------7--7-------------------------
A|----------------------------------------------------------------------------------
E|----------------------------------------------------------------------------------

Stave 8:

E|------------------------------------------------5-5------------------5-5-----------------
B|-7-5-5-7----------------5-5--7-7--10-10--10---------8-8-7-5--------------8-8-7---7---7---
G|---------7-4------4-7-4-----------------------7-------------7----4-7-----------7---7---7-
D|-------------7--7----------------------------------------------7-------------------------
A|-----------------------------------------------------------------------------------------
E|-----------------------------------------------------------------------------------------

Stave 9:

E|-5-5-----------
B|-----8-8-7-5---
G|-------------7-
D|---------------
A|---------------
E|---------------

Stave 10:

E|---7-5-----7-5-----7-5---------------
B|-5-----7-5-----7-5-----7-5-3-----5-7-
G|-----------------------------4-7-----
D|-------------------------------------
A|-------------------------------------
E|-------------------------------------

Stave 11:

E|-7-5--------------
B|-----7-5-3--5-5-5-
G|------------------
D|------------------
A|------------------
E|------------------

Stave 12:

E|----------------------------------------------------------------------------------
B|-5-5-7----------------5-5-7-----7---7----7-5-5-7----------------5-5-7-----7---7---
G|-------7-4------4-7-4-------7-4---7---7----------7-4------4-7-4-------7-4---7---7-
D|-----------7--7--------------------------------------7--7-------------------------
A|----------------------------------------------------------------------------------
E|----------------------------------------------------------------------------------

Stave 13:

E|------------------------------------------------5-5------------------5-5-----------------
B|-7-5-5-7-----------------5-5--7-7--10-10--10--------8-8-7-5--------------8-8-7---7---7---
G|---------7-4------4-7-4-----------------------7-------------7----4-7-----------7---7---7-
D|-------------7--7----------------------------------------------7-------------------------
A|-----------------------------------------------------------------------------------------
E|-----------------------------------------------------------------------------------------

Stave 14:

E|-----------------------------------------------------------
B|-7-5-5-7-----------------5-5--7-7--10-10--10--12p11--12p11-
G|---------7-4------4-7-4------------------------------------
D|-------------7--7------------------------------------------
A|-----------------------------------------------------------
E|-----------------------------------------------------------

Stave 15:

E|------------------10------------------------------------
B|-5-5--7-7--10-10------5-5--7-7--10-10--10--12p11--12p11-
G|--------------------------------------------------------
D|--------------------------------------------------------
A|--------------------------------------------------------
E|--------------------------------------------------------

Stave 16:

E|-----------------10-
B|-5-5--7-7--10-10----
G|--------------------
D|--------------------
A|--------------------
E|--------------------

http://www.guitartabcreator.com
Guitar Tab Creator is intended to store guitar tab created through the tool. It currently does not support in-line text editing. Any text you place in here will be lost. If you need to comment on your tab, please use the "Tab Notes" section located below.