Sound will begin in 5 seconds

Música 1

Chords
01234567891011121314151617181920212223
E
B
G
D
A
E
B
0 1 2 3 4 5 6 7 8 9 10 11 12 13 14 15 16 17 18 19 20 21 22 23
Song Science #1: How Pros Use 6 Chords to Write Hit Songs
(/) Slide Up  (\) Slide Down  (h) Hammer On  (p) Pull Off  (b) Bend (r) Release (v) Vibrato

(W|WW) Whole (H|HH) Half (Q|QQ) Quarter (E|EE) 8th (S|SS) 16th (T|TT) 32nd (X|XX) 64th

Stave 1:
t: W W W W W W W W W W W W W W W W W W
E|-------------------------------------
B|-------------------------------------
G|-------7-------7-------7-----------7-
D|-----7-------7-------7---7-------7---
A|---5-------5-------5-------5---5-----
E|-6-------6-------6-----------6-------

Stave 2:
t: W W W W W W W W W W W W W W W W W W
E|-------------------------------------
B|-------------------------------------
G|-------5-------5-------5-----------5-
D|-----5-------5-------5---5-------5---
A|---3-------3-------3-------3---3-----
E|-4-------4-------4-----------4-------

Stave 3:
t: W W W W W W W W W W W W W W W W W W
E|-------------------------------------
B|-------------------------------------
G|-------3-------3-------3-----------3-
D|-----3-------3-------3---3-------3---
A|---1-------1-------1-------1---1-----
E|-2-------2-------2-----------2-------

Stave 4:
t: W W W W W W W W W W W W W W
E|-----------------------------
B|-----------------------------
G|-------3-------3-----------3-
D|-----3-------3---3-------3---
A|---1-------1-------1---1-----
E|-2-------2-----------2-------

Stave 5:
t: W W W W W W W W W W W W W W W W W W W W W W W
E|-----------------------------------------------
B|-----------------------------------------------
G|-----------------------------------------------
D|-2-----2---------------2-----2---------------2-
A|-2-----2---------------2-----2---------------2-
E|-0-0-0-0-0-1-3-0-1-3-0-0-0-0-0-0-1-3-0-1-3-0-0-

Stave 6:
t: W W W W W W W W W W W W W W W W W W
E|-------------------------------------
B|-------------------------------------
G|-3-5---------------7-6-2-------6-7---
D|-3-5-2-------------7-6-2-------6-7-2-
A|-1-3-2-------------5-4-0-------4-5-2-
E|-----0-0-0-0-0-0-0-------0-0-0-----0-

Stave 7:
t: W
E|---
B|---
G|---
D|---
A|---
E|-0-

http://www.guitartabcreator.com
Guitar Tab Creator is intended to store guitar tab created through the tool. It currently does not support in-line text editing. Any text you place in here will be lost. If you need to comment on your tab, please use the "Tab Notes" section located below.