Sound will begin in 5 seconds

My Heart Will Go On

01234567891011121314151617181920212223
E
B
G
D
A
E
B
0 1 2 3 4 5 6 7 8 9 10 11 12 13 14 15 16 17 18 19 20 21 22 23
Song Science #1: How Pros Use 6 Chords to Write Hit Songs
(/) Slide Up  (\) Slide Down  (h) Hammer On  (p) Pull Off  (b) Bend (r) Release (v) Vibrato

Capo Fret 2

Stave 1:

D|---------------------0-----8--5\4--0--------|---------------------0-----8--4h7--9--7-----|--
A|--5/7--7/9--10p9--------8-------------------|--5/7--7/9--10p9--------8----------------8--|--
G|------------------9-----7-------------4--2--|------------------9-----7----------------7--|--
D|------------------------8-------------------|------------------------8----------------8--|--
A|------------------------0-------------0--0--|------------------------0-------------0--0--|--
D|-------0---------------------------5--5-----|-------0---------------------------5--5-----|--

Stave 2:

D|--0--------0--0-----0--------0-----------------0-----------2p0--4-----5p4--2--0-----0--------|---
A|--------------------------4--------------4--4-------------------5----------0-----------------|---
G|--------2-----------------2-----------2-----------------0-------4-------------------------2--|--\
D|-----4-----------4-----0-----------2-----------------0-------0--0--0-------------0-----4-----|---
A|--------------------------0-----0------------------------------------------0-----------------|---
D|--0-----------------------------------------5-----5---------------------------------0--------|---

Stave 3:

D|--0--0-----0--------0--------------------------------0-----------0--2p0h2p0-----0--0----|--
A|-----------------4--------------4--0--------------0--------0-----------------4----------|--
G|-----------------2-----------2-----------0-----0--------4-----4-------------------------|--
D|--------4-----0-----------2-----------0-----4-------------------------------------------|--
A|-----------------0-----0--------------------------------------------0-------------------|--
D|-----------------------------------5--------------------5--------------------------0----|--

Stave 4:

D|--------0--0-----0--------0-----------------0-----------2p0--4-----5p4--2--0-----0--------|--
A|-----------------------4--------------4--4-------------------5----------4-----------------|--
G|-----2-----------------2-----------2-----------------0-------4-------------------------4--|--
D|--4-----------4-----0-----------2-----------------0-------0--0--0-------------0-----4-----|--
A|-----------------------0-----0------------------------------------------0--------2--------|--
D|-----------------------------------------5-----5------------------------------------------|--

Stave 5:

D|--0--0-----0-----
A|-----------------
G|-----------------
D|--------4-----0--
A|-----------------
D|-----------------

http://www.guitartabcreator.com
Guitar Tab Creator is intended to store guitar tab created through the tool. It currently does not support in-line text editing. Any text you place in here will be lost. If you need to comment on your tab, please use the "Tab Notes" section located below.