Sound will begin in 5 seconds

Hideaway

01234567891011121314151617181920212223
E
B
G
D
A
E
B
0 1 2 3 4 5 6 7 8 9 10 11 12 13 14 15 16 17 18 19 20 21 22 23
Song Science #1: How Pros Use 6 Chords to Write Hit Songs
(/) Slide Up  (\) Slide Down  (h) Hammer On  (p) Pull Off  (b) Bend (r) Release (v) Vibrato

Stave 1:

E|------------------|---------------------------------------|--
B|------------------|---------------------------------------|--
G|--------9--11b12--|-----------9--11b12--11--9------9--11--|--
D|--9h11------------|--9--9h11-------------------11---------|--
A|------------------|---------------------------------------|--
E|------------------|---------------------------------------|--

Stave 2:

E|------------------------------------------|-----------------------------------|--
B|------------------------------------------|-----------------------------------|--
G|--------9---------9--------9--------9--9--|-----------9--11b12--11--9------9--|--
D|--9h11-----9hh11-----9h11-----9h11--------|--9--9h11-------------------11-----|--
A|------------------------------------------|-----------------------------------|--
E|------------------------------------------|-----------------------------------|--

Stave 3:

E|--------|---------------------------------------------------|--
B|--------|---------------------------------------------------|--
G|--8--7--|-----------9--11--11--11--11--11b12--9--11--9------|--
D|--7--6--|--9--9h11--------------------------------------11--|--
A|--8--7--|---------------------------------------------------|--
E|--------|---------------------------------------------------|--

Stave 4:

E|---------------------------------------------------------|---------------------|--
B|---------------------------------------------------------|---------------------|--
G|--------9--------9--------9-----------------9------------|------------9--------|--
D|--9h11-----9h11-----9h11-----11--9--11---------12b13--9--|--7------------9--7--|--
A|----------------------------------------11---------------|-----10--7-----------|--
E|---------------------------------------------------------|---------------------|--

Stave 5:

E|------------------------------|-------------------------------------|--
B|------------------------------|-------------------------------------|--
G|------------------------------|-------7--7--7--7--7--7--7--7--7--7--|--
D|--7b8b7--7---------------5h6--|--7/9--9--9--9--9--9--9--9--9--9--9--|--
A|------------10p7--7--7v-------|-------------------------------------|--
E|------------------------------|-------------------------------------|--

Stave 6:

E|--------------------------------------|-----------------------------------|--
B|--------------------------------------|--------5--5v--7--7b8--7--5v--7b8--|--
G|--------------------------------------|-----6-----------------------------|--
D|--7--5--7b8b7p5-----5--7--5--7--7--5--|--7--------------------------------|--
A|-----------------7--------------------|-----------------------------------|--
E|--------------------------------------|-----------------------------------|--

Stave 7:

E|-------------------------------|---------------------------------------------|--
B|-------------------------------|---------------------------------------------|--
G|-------7--7--7--7--7-------7v--|--9---9--7--9--7h9p7---------------9--7------|--
D|--7/9--9--9--9--9--9--7/9--9---|----------------------9--7h9p7-----------7v--|--
A|-------------------------------|--------------------------------7------------|--
E|-------------------------------|---------------------------------------------|--

Stave 8:

E|----------------------------|----------------------------|----------------------------|--
B|----------------------------|----------------------------|----------------------------|--
G|----------------------------|----------------------------|----------------------------|--
D|-----------------------1/2--|-----------------------1/2--|--------2--5--2--4--2--1/2--|--
A|--------2--5--2--4--2-------|--------2--5--2--4--2-------|--0--4----------------------|--
E|--0--4----------------------|--0--4----------------------|----------------------------|--

Stave 9:

E|----------------------------|----------------------------|--------------------|--
B|----------------------------|----------------------------|--------------------|--
G|----------------------------|----------------------------|--------------------|--
D|-----------------------1/2--|--------4--7--4--6--4--1/2--|--------------------|--
A|--------2--5--2--4--2-------|--2--6----------------------|--------2--5--2--4--|--
E|--0--4----------------------|----------------------------|--0--4--------------|--

Stave 10:

E|---------12--|-------------12--------------------------|----------------------------------|--
B|--12b16------|---------12--------------------------12--|--14--14--12------14--14--12------|--
G|--14---------|--14b16----------14b16r14p12b13------12--|--14--14--12------14--14--12------|--
D|-------------|---------------------------------14------|--------------14--------------14--|--
A|-------------|-----------------------------------------|----------------------------------|--
E|-------------|-----------------------------------------|----------------------------------|--

Stave 11:

E|----------------------|----------------------|-------------12----------12-----------------|--
B|--14--14--14--14--12--|--14--14--14--14--12--|---------12------12--15------15--12--15b17--|--
G|--14--14--14--14--12--|--14--14--14--14--12--|--14b16-------------------------------------|--
D|----------------------|----------------------|--------------------------------------------|--
A|----------------------|----------------------|--------------------------------------------|--
E|----------------------|----------------------|--------------------------------------------|--

Stave 12:

E|--12------------------|-----------------------------------------|-----
B|------15--12--15--12--|--15b17--15--12--15b16r15p12--15--12b13--|-----
G|----------------------|-----------------------------------------|--bpp
D|----------------------|-----------------------------------------|-----
A|----------------------|-----------------------------------------|-----
E|----------------------|-----------------------------------------|-----

Stave 13:

E|-----------------12-------------------------------------|--------------
B|--12---------12------15--12--12b13----------------------|--17--17--17--
G|------14b15-------------------------14--15--14--12------|--13--13--13--
D|----------------------------------------------------14--|--14--14--14--
A|--------------------------------------------------------|--------------
E|--------------------------------------------------------|--------------

http://www.guitartabcreator.com
Guitar Tab Creator is intended to store guitar tab created through the tool. It currently does not support in-line text editing. Any text you place in here will be lost. If you need to comment on your tab, please use the "Tab Notes" section located below.