Sound will begin in 5 seconds

teenagers-my chemical romance

01234567891011121314151617181920212223
E
B
G
D
A
E
B
0 1 2 3 4 5 6 7 8 9 10 11 12 13 14 15 16 17 18 19 20 21 22 23
Song Science #1: How Pros Use 6 Chords to Write Hit Songs
(/) Slide Up  (\) Slide Down  (h) Hammer On  (p) Pull Off  (b) Bend (r) Release (v) Vibrato

Stave 1:

E|--------------------0--|---------------------0--|--------------------------|--7--7--7---7----7--7---7--
B|--------------------0--|---------------------0--|--------------------------|--7--7--7---7----7--7---7--
G|-----------------------|------------------------|--------------------------|--7--7--7---7----7--7---7--
D|-----------------------|------------------------|--------------------------|--7--7--7---7----7--7---7--
A|--2--2--4--2----2-------|--2--2--4--2----2-------|--2-----4-----5-----4-----|--9--9--11--9----9--7---9--
E|--0--0--0--0----0h4-----|--0--0--0--0----0h4-----|--0--0--0--0--0--0--0--0--|--7--7--7---7----7--11--7--

Stave 2:

E|---------------------0--|---------------------0--|--7--7--7---7---7---7--|---------------------0--
B|---------------------0--|---------------------0--|--7--7--7---7---7---7--|---------------------0--
G|------------------------|------------------------|--7--7--7---7---7---7--|------------------------
D|--2--2--4--2----2-------|------------------------|--7--7--7---7---7---7--|------------------------
A|--0--0--0--0----0h4-----|--2--2--4--2----2-------|--9--9--11--12--11--9--|--2--2--4--2----2-------
E|------------------------|--0--0--0--0----0h4-----|--7--7--7---7---7---7--|--0--0--0--0----0h4-----

Stave 3:

E|----------------------------|--------------------------------------|-------------------------------------
B|----------------------------|--------------------------------------|-------------------------------------
G|----------------------------|--------------------------------------|-------------------------------------
D|----------------------------|--------------6--6--6--6--4--4--6--4--|--7--7--6--7----7--7--6--4--4--6--2--
A|--2--2--4--2----2--2--4--2--|--2--2--4--2--------------------------|-------------------------------------
E|--0--0--0--0----0--0--0--0--|--0--0--0--0--------------------------|-------------------------------------

Stave 4:

E|-----------------------------------|-------3-------0--
B|-----------------------------------|--0---------------
G|-----------------------------------|--2\3-----3/2-----
D|-----------------------------------|------------------
A|----2--2--1--1--2--2--4--6--4v--2--|------------------
E|-----------------------------------|------------------

Stave 5:

E|--7--7--6--7----2--4--6--|--7--7--6--7----2--4--6--|--7--7--7--7--11--11--11--11--
B|--7--7--6--7----2--4--6--|--7--7--6--7----2--4--6--|--7--7--7--7--11--11--11--11--
G|--9--9--8--9----4--6--8--|--9--9--8--9----4--6--8--|--9--9--9--9--13--13--13--13--
D|--7--7--6--7----2--4--6--|--7--7--6--7----2--4--6--|--7--7--7--7--11--11--11--11--
A|--7--7--6--7----2--4--6--|--7--7--6--7----2--4--6--|--7--7--7--7--11--11--11--11--
E|-------------------------|-------------------------|------------------------------

Stave 6:

E|----9---9---11--9---9---9---9---|--12--12--11--12--x--12--12--11--9---9---11--7--
B|----9---9---11--9---9---9---9---|--12--12--11--12--x--12--12--11--9---9---11--7--
G|----11--11--13--11--11--11--11--|--14--14--13--14--x--14--14--13--11--11--13--9--
D|----9---9---11--9---9---9---9---|--12--12--11--12--x--12--12--11--9---9---11--7--
A|----9---9---11--9---9---9---9---|--12--12--11--12--x--12--12--11--9---9---11--7--
E|--------------------------------|------------------x-----------------------------

Stave 7:

E|----7--7--6--6--7--7--9---11--9---7--
B|----7--7--6--6--7--7--9---11--9---7--
G|----9--9--8--8--9--9--11--13--11--9--
D|----7--7--6--6--7--7--9---11--9---7--
A|----7--7--6--6--7--7--9---11--9---7--
E|-------------------------------------

Stave 8:

E|--------------------------
B|--------------------------
G|----9\11----11p9p7----9v--
D|--------------------------
A|--------------------------
E|--------------------------

http://www.guitartabcreator.com
Guitar Tab Creator is intended to store guitar tab created through the tool. It currently does not support in-line text editing. Any text you place in here will be lost. If you need to comment on your tab, please use the "Tab Notes" section located below.