Sound will begin in 5 seconds

Major Sea

01234567891011121314151617181920212223
E
B
G
D
A
E
B
0 1 2 3 4 5 6 7 8 9 10 11 12 13 14 15 16 17 18 19 20 21 22 23
Song Science #1: How Pros Use 6 Chords to Write Hit Songs
(/) Slide Up  (\) Slide Down  (h) Hammer On  (p) Pull Off  (b) Bend (r) Release (v) Vibrato

Stave 1:

E|--------------------------------------|--------------------------------------|--
B|-----------------------------5--------|-----------------------------6--------|--
G|--------6--------6--------6-----6-----|--------6--------6--------6-----6-----|--
D|-----7--------7--------7-----------7--|-----7--------7--------7-----------7--|--
A|--0--------0--------0-----------------|--8--------8--------8-----------------|--
E|--------------------------------------|--------------------------------------|--

Stave 2:

E|-----------------------------2--------|-----------3-----------------0--------|--
B|--------2--------2--------2-----2-----|--------3-----3-----------3-----------|--
G|-----2--------2--------2-----------2--|-----4-----------4-----4--------------|--
D|--4--------4--------4-----------------|--5-----------------5-----------------|--
A|--------------------------------------|--------------------------------------|--
E|--------------------------------------|--------------------------------------|--

Stave 3:

E|--------------------------0-----------|-----------------------0--------------|--
B|-----------------------------0--------|--------------------------0-----------|--
G|--------6--------6--------------6-----|--------0--------0-----------0--------|--
D|-----7--------7--------7-----------7--|-----7--------7-----------------7-----|--
A|--0--------0--------0-----------------|--7--------7--------7--------------7--|--
E|--------------------------------------|--------------------------------------|--

Stave 4:

E|--------------------------------------|----------------------------------------|--
B|--------------------------------------|--------3--------1--------2----------3--|--
G|--------0--------0--------0--------0--|-----2--------2--------2----------5-----|--
D|-----7--------7--------7--------7-----|----------------------------------------|--
A|--5--------5--------5--------5--------|--1--------3--------4--------4/5--------|--
E|--------------------------------------|----------------------------------------|--

Stave 5:

E|----------------------------------------------|--
B|---------------8---------------------8--------|--
G|---------0--------0------------0--------0-----|--
D|------9-----9--------9------9-----9--------9--|--
A|--10--------------------10--------------------|--
E|----------------------------------------------|--

Stave 6:

E|----------------------------------------------|--
B|---------------8---------------------8--------|--
G|---------0--------0------------0--------0-----|--
D|------9-----9--------9------9-----9--------9--|--
A|----------------------------------------------|--
E|--10--------------------10--------------------|--

Stave 7:

E|--
B|--
G|--
D|--
A|--
E|--

http://www.guitartabcreator.com
Guitar Tab Creator is intended to store guitar tab created through the tool. It currently does not support in-line text editing. Any text you place in here will be lost. If you need to comment on your tab, please use the "Tab Notes" section located below.