IWannaBeAdored

Chords
01234567891011121314151617181920212223
E
B
G
D
A
E
B
0 1 2 3 4 5 6 7 8 9 10 11 12 13 14 15 16 17 18 19 20 21 22 23
(/) Slide Up  (\) Slide Down  (h) Hammer On  (p) Pull Off  (b) Bend (r) Release (v) Vibrato

E|-----------------------------------------------
B|-----------------------------------------------
G|-----------------------------------------------
D|-----------------------------------------------
A|--------------5--5--5--5--------------5--7--5--
E|--3--3--3--3--------------3--3--3--3-----------



E|-----------------------
B|-----------------------
G|-----------------------
D|-----------------------
A|--7--------------------
E|-----0--0--0--0--0--0--



E|-----------------------
B|-----------------------
G|-----------------------
D|-----------------------
A|--9--7-----9--7--------
E|--------0--------0--0--



E|--------------------
B|--------------------
G|--------------------
D|--------------------
A|--5--5--3--0--3--0--
E|--------------------



E|-----
B|-----
G|-----
D|-----
A|--5--
E|-----
							http://www.guitartabcreator.com
[["."],["5"],["."],["."],["."],["."]]

Member for

7 years 8 months
Submitted by andrewjsparker on Sat, 2012-10-06 21:39