InterpolEvil

Chords
01234567891011121314151617181920212223
E
B
G
D
A
E
B
0 1 2 3 4 5 6 7 8 9 10 11 12 13 14 15 16 17 18 19 20 21 22 23
(/) Slide Up  (\) Slide Down  (h) Hammer On  (p) Pull Off  (b) Bend (r) Release (v) Vibrato


E|--------------------------------------|--
B|--------------------------------------|--
G|--------------------------------------|--
D|--------------------------------------|--
A|--8--8--8--------------------5--5-----|--
E|-----------6--6--6--5--5--5--------5--|--



E|--------------------------------------|--
B|--------------------------------------|--
G|--------------------------------------|--
D|--------------------------------------|--
A|--8--8--8--------------------5--5--5--|--
E|-----------6--6--6--5--5--5-----------|--
							http://www.guitartabcreator.com
[[".",".",".","6","6","6","5","5","5",".",".",".","|"],["8","8","8",".",".",".",".",".",".","5","5","5","|"],[".",".",".",".",".",".",".",".",".",".",".",".","|"],[".",".",".",".",".",".",".",".",".",".",".",".","|"],[".",".",".",".",".",".",".",".",".",".",".",".","|"],[".",".",".",".",".",".",".",".",".",".",".",".","|"]]

Member for

7 years 8 months
Submitted by andrewjsparker on Sat, 2013-02-02 16:20