Sound will begin in 5 seconds

Young person's game v2

Chords
01234567891011121314151617181920212223
E
B
G
D
A
E
B
0 1 2 3 4 5 6 7 8 9 10 11 12 13 14 15 16 17 18 19 20 21 22 23
Song Science #1: How Pros Use 6 Chords to Write Hit Songs
(/) Slide Up  (\) Slide Down  (h) Hammer On  (p) Pull Off  (b) Bend (r) Release (v) Vibrato

Stave 1:

E|--10-----3--
B|--10-----3--
G|--11-----4--
D|--10-----3--
A|--12-----5--
E|--10-----3--

Stave 2:

E|--3-----10--
B|--3-----10--
G|--4-----11--
D|--5-----12--
A|--3-----10--
E|--3-----10--

Stave 3:

E|--3-----1-----1-----0--
B|--3-----1-----1-----0--
G|--4-----2-----1-----1--
D|--5-----3-----2-----2--
A|--3-----1-----3-----0--
E|--3-----1-----1-----0--

Stave 4:

E|--10--------3-----|--|-----10-----3-----3-----10--
B|--10--------3-----|--|-----10-----3-----3-----10--
G|--11--------4-----|--|-----11-----4-----3-----10--
D|--10--------3-----|--|-----12-----5-----4-----11--
A|--12--------5-----|--|-----10-----3-----5-----12--
E|--10--------3-----|--|-----10-----3-----3-----10--

Stave 5:

E|--10-----7-----3-----|--|--10-----7-----5--5--|-----12-----7--|--|--
B|--10-----7-----3-----|--|--10-----7-----5--5--|-----12-----7--|--|--
G|--11-----7-----4-----|--|--11-----7-----6--6--|-----12-----7--|--|--
D|--12-----7-----5-----|--|--12-----7-----7--7--|-----12-----7--|--|--
A|--12-----5-----5-----|--|--12-----5-----7--7--|-----10-----5--|--|--
E|--10-----------3-----|--|--10-----------5--5--|---------------|--|--

http://www.guitartabcreator.com
Guitar Tab Creator is intended to store guitar tab created through the tool. It currently does not support in-line text editing. Any text you place in here will be lost. If you need to comment on your tab, please use the "Tab Notes" section located below.