sweet home

Chords

01234567891011121314151617181920212223
E
B
G
D
A
E
B
0 1 2 3 4 5 6 7 8 9 10 11 12 13 14 15 16 17 18 19 20 21 22 23
(/) Slide Up  (\) Slide Down  (h) Hammer On  (p) Pull Off  (b) Bend (r) Release (v) Vibrato


E|---------------------------------------------------3-----------------------------
B|-----------3-------------------3-------------------3-----------------------------
G|---------------2-------------------0---------------0-----------------------2p0---
D|---0---0-----------0-------------------0-----------0---------0h2---0-------------
A|-----------------------3---3-----------------------0---0h2-------------2---------
E|-------------------------------------------3---3---3-----------------------------



E|---------------------------------------------------3---------------------------------------
B|-----------3-------------------3-------------------3-------------------------------3-------
G|---------------2-------------------0---------------0---0---0---2---0---0---4---0-----------
D|---0---0-----------0-------------------0-----------0---------------------------------------
A|-----------------------3---3-----------------------2---------------------------------------
E|-------------------------------------------3---3---3---------------------------------------



E|------------------------------------------------------------------------------
B|------------------------------------------------------------------------------
G|-----------7---------5-------------0--------------7---------5-------------0---
D|-----------7---------5---------0------------------7---------5---------0-------
A|---7h8h9-------5h7-------0h2--------------7h8h9-------5h7-------0h2-----------
E|------------------------------------------------------------------------------
							http://www.guitartabcreator.com
[[],[],[],[],[],[]]

Member for

8 years 10 months
Submitted by akos on Wed, 2011-09-28 07:13