Song I wrote

Chords
01234567891011121314151617181920212223
E
B
G
D
A
E
B
0 1 2 3 4 5 6 7 8 9 10 11 12 13 14 15 16 17 18 19 20 21 22 23
Capo 4

e |----------------0h2--4s6s7-8---------------------------0-0-2-4-6
B |----------------0-0--0-0-0-0----------------0----------0-0-0-0-0
F#|----------------0-0--0-0-0-0----------------0----------0-0-0-0-0
D#|-----3p0--------3-3--3s5s7-7-----3p0--------0------3p0-0h3-3-3-0
B |--------4p0-2p0-0-0--0-0-0-0--------4p0-2p0-0---2s4----4-4-4-4-4
E |--2s4-----------0h4--2s4p0h10-2s4-----------0h2-0------0-0-0-0-0

 e |----------------2---4-6-2-0---0---0-------2s4-2s4-
 B |----------------0---0-0-0-0---0---0---4s2-2s4-2s4-
 F#|----------------2---4-4-0-0---0---2s4-0---0---0---
 D#|-----3p0--------0---0-0-3-0---5s3-0---0---0---0---
 B |--------4p0-2p0-0---0-0-4-2s4-0---0---0---0---0---
 E |-2s4------------0h2-4-4-2-0---0---0---0---0---0---

  e |-0---0-2-0-0
  B |-0---0-0-0-0
  F#|-0---5-4-0-0 
  D#|-0---3-0-0-0
  B |-0---0-2-0-0
  E |-0h2-0-0-2s4
[[],[],[],[],[],[]]

Member for

8 years 9 months
Submitted by ajone189 on Sat, 2011-08-27 00:20