Sound will begin in 5 seconds

Sus2/4 Tree - Root

01234567891011121314151617181920212223
E
B
G
D
A
E
B
0 1 2 3 4 5 6 7 8 9 10 11 12 13 14 15 16 17 18 19 20 21 22 23
Song Science #1: How Pros Use 6 Chords to Write Hit Songs
(/) Slide Up  (\) Slide Down  (h) Hammer On  (p) Pull Off  (b) Bend (r) Release (v) Vibrato

Stave 1:

E|------------1-4-6-4--------------------------6--------------------------------6-11-13-11----------
B|----------4---------6-4------------------6-9---9-6------------------------6-9------------11-------
G|--------3---------------3------------3-8-----------8--------------------8-------------------13-10-
D|------6-------------------6--------6-----------------8-6--------------8---------------------------
A|----8-----------------------8----8-----------------------8-------8-11-----------------------------
E|-11---------------------------11---------------------------11-11----------------------------------

Stave 2:

E|------------------------------------11-13-16-18-16-------------------------------------------------
B|---------------------------------11----------------18-16-------------------------------------------
G|---------------------------10-13-------------------------15-13----------------------------------13-
D|-13-8-------------------13-------------------------------------15-13----------------------13-15----
A|------11----------11-13----------------------------------------------13-11----------11-13----------
E|---------13-11-13----------------------------------------------------------13-11-13----------------

Stave 3:

E|----------16-18-16-13-11---------------------------------------------11-13-11-6-------------------
B|----16-18----------------11---------------------------------------11------------9-6---------------
G|-15-------------------------13-10---------------------------10-13-------------------8-------------
D|----------------------------------13-------------------8-13---------------------------8-----------
A|-------------------------------------13-11----------11----------------------------------11-8----8-
E|-------------------------------------------13-11-13------------------------------------------11---

Stave 4:

E|-----------6--------------------------4-6-4-1------------
B|-------6-9---9-6------------------4-6---------4----------
G|-----8-----------8-3------------3---------------3--------
D|-6-8-----------------6--------6-------------------6------
A|-----------------------8----8-----------------------8----
E|-------------------------11---------------------------11-

http://www.guitartabcreator.com
Guitar Tab Creator is intended to store guitar tab created through the tool. It currently does not support in-line text editing. Any text you place in here will be lost. If you need to comment on your tab, please use the "Tab Notes" section located below.