Sound will begin in 5 seconds

Sus2/4 Tree - P5

01234567891011121314151617181920212223
E
B
G
D
A
E
B
0 1 2 3 4 5 6 7 8 9 10 11 12 13 14 15 16 17 18 19 20 21 22 23
Song Science #1: How Pros Use 6 Chords to Write Hit Songs
(/) Slide Up  (\) Slide Down  (h) Hammer On  (p) Pull Off  (b) Bend (r) Release (v) Vibrato

Stave 1:

E|-----------1-3-6-3-------------------------6-8-----------------------------------------13-15-18-15-------
B|---------1---------6-1-----------------6-8-----11-8------------------------------11-13-------------18-13-
G|-------3---------------3-----------3-5--------------10-5-------------------10-12-------------------------
D|-----5-------------------5-------5-----------------------8-5----------8-10-------------------------------
A|---8-----------------------8---8-----------------------------8---8-10------------------------------------
E|-8---------------------------8---------------------------------8-----------------------------------------

Stave 2:

E|---------------------------------------------------15-18-15-13-----------------------------------------
B|---------------------------------------------13-18-------------13-11------------------------------8-11-
G|-15-12---------------------------------12-15-------------------------12-10-------------------5-10------
D|-------15-10---------------------10-15-------------------------------------10-8----------5-8-----------
A|-------------13-10---------10-13------------------------------------------------10-8---8---------------
E|-------------------13-8-13-----------------------------------------------------------8-----------------

Stave 3:

E|-8-6-------------------------3-6-3-1-----------
B|-----8-6-----------------1-6---------1---------
G|---------5-3-----------3---------------3-------
D|-------------5-------5-------------------5-----
A|---------------8---8-----------------------8---
E|-----------------8---------------------------8-

http://www.guitartabcreator.com
Guitar Tab Creator is intended to store guitar tab created through the tool. It currently does not support in-line text editing. Any text you place in here will be lost. If you need to comment on your tab, please use the "Tab Notes" section located below.