Sound will begin in 5 seconds

Sus2/4 Tree - P4

01234567891011121314151617181920212223
E
B
G
D
A
E
B
0 1 2 3 4 5 6 7 8 9 10 11 12 13 14 15 16 17 18 19 20 21 22 23
Song Science #1: How Pros Use 6 Chords to Write Hit Songs
(/) Slide Up  (\) Slide Down  (h) Hammer On  (p) Pull Off  (b) Bend (r) Release (v) Vibrato

Stave 1:

E|------------1-6-8-6-------------------------6-8-11-13-11-------------------------------------------
B|----------4---------6-4-------------------6--------------13-11----------------------------------13-
G|--------5---------------5---------------8----------------------10-8-----------------------10-15----
D|------8-------------------8--------8-10-----------------------------10-8---------------13----------
A|----8-----------------------8----8---------------------------------------8-------13-15-------------
E|-11---------------------------11-------------------------------------------11-13-------------------

Stave 2:

E|----13-18-20-18----------------------------------------------------------18-20-18-13----------------
B|-16-------------18-16----------------------------------------------16-18-------------16-13----------
G|----------------------17-15----------------------------------15-17-------------------------15-10----
D|----------------------------15-13----------------------13-15-------------------------------------13-
A|----------------------------------15-13----------13-15----------------------------------------------
E|----------------------------------------13-11-13----------------------------------------------------

Stave 3:

E|-------------------------------11-13-11-8-6-------------------------6-8-6-1------------
B|-------------------------11-13--------------6-------------------4-6---------4----------
G|--------------------8-10----------------------8---------------5---------------5--------
D|---------------8-10-----------------------------10-8--------8-------------------8------
A|-15-13-------8---------------------------------------8----8-----------------------8----
E|-------13-11-------------------------------------------11---------------------------11-

http://www.guitartabcreator.com
Guitar Tab Creator is intended to store guitar tab created through the tool. It currently does not support in-line text editing. Any text you place in here will be lost. If you need to comment on your tab, please use the "Tab Notes" section located below.