Sound will begin in 5 seconds

Sus2/4 Tree - M2

01234567891011121314151617181920212223
E
B
G
D
A
E
B
0 1 2 3 4 5 6 7 8 9 10 11 12 13 14 15 16 17 18 19 20 21 22 23
Song Science #1: How Pros Use 6 Chords to Write Hit Songs
(/) Slide Up  (\) Slide Down  (h) Hammer On  (p) Pull Off  (b) Bend (r) Release (v) Vibrato

Stave 1:

E|------------1-3--------------------------8-10-8----------------------------------8-10-13-10----------
B|----------3-----6-3------------------6-8--------8------------------------------8------------13-------
G|--------5-----------5------------5-7--------------10-7----------------------10-----------------12-10-
D|------5---------------5--------5-----------------------10-5-----------10-12--------------------------
A|----8-------------------8----8------------------------------8----8-10--------------------------------
E|-10-----------------------10----------------------------------10-------------------------------------

Stave 2:

E|-------------------------------------------15-20-15-------------------------------------------------
B|-------------------------------------15-18----------18-15-------------------------------------------
G|-------------------------------12-17----------------------17-12-------------------------------10-12-
D|-12-10-------------------12-15----------------------------------15-12-------------------10-12-------
A|-------10----------10-15----------------------------------------------15-10----------10-------------
E|----------13-10-13----------------------------------------------------------13-10-13----------------

Stave 3:

E|----10-13-10-8----------------------------------8-10-8--------------------------3-1------------
B|-13------------8------------------------------8--------8-6------------------3-6-----3----------
G|-----------------10----------------------7-10--------------7-5------------5-----------5--------
D|--------------------12-10-----------5-10-----------------------5--------5---------------5------
A|--------------------------10-8----8------------------------------8----8-------------------8----
E|-------------------------------10----------------------------------10-----------------------10-

http://www.guitartabcreator.com
Guitar Tab Creator is intended to store guitar tab created through the tool. It currently does not support in-line text editing. Any text you place in here will be lost. If you need to comment on your tab, please use the "Tab Notes" section located below.