Sound will begin in 5 seconds

Sus2/4 Grove

01234567891011121314151617181920212223
E
B
G
D
A
E
B
0 1 2 3 4 5 6 7 8 9 10 11 12 13 14 15 16 17 18 19 20 21 22 23
Song Science #1: How Pros Use 6 Chords to Write Hit Songs
(/) Slide Up  (\) Slide Down  (h) Hammer On  (p) Pull Off  (b) Bend (r) Release (v) Vibrato

Stave 1:

E|------------1-4-6---------------------------6-11-13-11-------------------------------13-16-13-11-
B|----------4-------6-----------------------9------------11----------------------11-16-------------
G|--------3-----------8------------------10-----------------13----------------13-------------------
D|------6---------------8-------------13-----------------------15----------15----------------------
A|----8-------------------11-------13-----------------------------18----18-------------------------
E|-11------------------------13-16-----------------------------------18----------------------------

Stave 2:

E|--------------------------------6-4--------------------------6-11-13-11----------------------------
B|-11-9-----------------------6-9-----6-4------------------6-9------------11-9-----------------------
G|------10------------------8-------------3------------3-8---------------------10-8------------------
D|---------13-------------8-----------------6--------6------------------------------8-------------13-
A|------------13-------11---------------------8----8----------------------------------11-------13----
E|---------------16-13--------------------------11---------------------------------------13-16-------

Stave 3:

E|----------11-13-16-18-------------------------------------------18-16-------------------------------
B|-------11-------------18-16-------------------------------18-21-------18-16-------------------------
G|----13----------------------15-13-------------------15-20-------------------15-13-------------------
D|-15-------------------------------15----------15-18-------------------------------15-13-------------
A|-------------------------------------18----18-------------------------------------------13-------11-
E|----------------------------------------18-------------------------------------------------16-13----

Stave 4:

E|---------------11-13-11-6-----------------------------6-11-13-11-------------------------------------
B|------------11------------9-6---------------------6-9------------11----------------------------------
G|------10-13-------------------8-----------------8-------------------13-------------------------------
D|-8-13---------------------------8-6-----------8------------------------15-13----------------------18-
A|------------------------------------8----8-11--------------------------------13-11----------18-20----
E|--------------------------------------11-------------------------------------------13-16-18----------

Stave 5:

E|-------------18-------------------------------------------------------------13-16-13-11-------------
B|-------18-21----21-18-------------------------------------------------11-16-------------11-9--------
G|-15-20----------------20----------------------------------------10-13------------------------10-8---
D|-------------------------20-18-----------------------------8-13-----------------------------------8-
A|-------------------------------20-18------------------8-11------------------------------------------
E|-------------------------------------18-16-13-11-6-11-----------------------------------------------

Stave 6:

E|----------------------------------------13-16-13-11---------------------------------------------11-
B|-------------------------------------16-------------11---------------------------------------11----
G|-------------------------------13-15-------------------13-10---------------------------10-13-------
D|-6-----------------------13-15-------------------------------13-8-------------------13-------------
A|---8-6----------------13------------------------------------------11----------11-13----------------
E|-------6-4-6-11-13-16------------------------------------------------13-11-13----------------------

Stave 7:

E|-13-11-6-------------------------------------------------------16-18-16----------------------------
B|---------9-6---------------------------------------------16-18----------18-16----------------------
G|-------------8-3-----------------------------------13-15----------------------15-13----------------
D|-----------------6-3-------------------------13-15----------------------------------15-13----------
A|---------------------6-1---------------11-13----------------------------------------------13-11----
E|-------------------------4-1-4-6-11-13----------------------------------------------------------13-

Stave 8:

E|----------------------------6-11-13-11---------------------------------------------11-13-16-13----
B|------------------------6-9------------11---------------------------------------11-------------16-
G|--------------------3-8-------------------13-10---------------------------10-13-------------------
D|----------------3-6-----------------------------13-------------------8-13-------------------------
A|------------1-6------------------------------------13-11----------11------------------------------
E|-11-6-4-1-4----------------------------------------------13-11-13---------------------------------

Stave 9:

E|-------------------------------------------------11-13-16-13-------------------------------------
B|--------------------------------------------9-11-------------16-11-------------------------------
G|-15-13---------------------------------8-10------------------------13-10-------------------------
D|-------15-13-----------------------6-8-----------------------------------13-8--------------------
A|-------------13----------------6-8--------------------------------------------11-8---------------
E|----------------16-13-11-6-4-6-----------------------------------------------------11-6-11-13-16-

Stave 10:

E|-------------------------18-------------------------------------------------11-13-11-6------------
B|-------------------18-21----21-18----------------------------------------11------------9-6--------
G|----------------20----------------20-15-------------------------------13-------------------8------
D|----------18-20-------------------------18----------------------13-15------------------------8----
A|----18-20----------------------------------20-18----------11-13--------------------------------11-
E|-18----------------------------------------------18-16-13-----------------------------------------

Stave 11:

E|------------------6-11-13-11---------------------------------------------16-18-------------------
B|--------------6-9------------11------------------------------------16-18-------21-18-------------
G|------------8-------------------13-10------------------------13-15-------------------20-15-------
D|--------6-8---------------------------13-8-------------13-15-------------------------------18-15-
A|-8----8------------------------------------11-------13-------------------------------------------
E|---11-----------------------------------------13-16----------------------------------------------

Stave 12:

E|-------------------------18-16-13-11-------------------------------------11-13-11-6-------------
B|-------------------16-18-------------11-----------------------------9-11------------9-6---------
G|-------------13-15----------------------13---------------------8-10---------------------8-3-----
D|----------15-------------------------------15-13-------------8------------------------------6---
A|-18----18----------------------------------------13-------11----------------------------------8-
E|----18----------------------------------------------16-13---------------------------------------

Stave 13:

E|--------------4-6--------------------------------11-13-16-13-------------------------------11-
B|----------4-6-----9-6-----------------------9-11-------------16-11----------------------11----
G|--------3-------------8------------------10------------------------13----------------13-------
D|------6-----------------8-------------13------------------------------15----------15----------
A|----8---------------------11-------13------------------------------------18----18-------------
E|-11--------------------------13-16------------------------------------------18----------------

Stave 14:

E|-13-11-6---------------------------6-4-1------------
B|---------9-----------------------6-------4----------
G|-----------10------------------8-----------3--------
D|--------------13-------------8---------------6------
A|-----------------13-------11-------------------8----
E|--------------------16-13------------------------11-

http://www.guitartabcreator.com
Guitar Tab Creator is intended to store guitar tab created through the tool. It currently does not support in-line text editing. Any text you place in here will be lost. If you need to comment on your tab, please use the "Tab Notes" section located below.