Sound will begin in 5 seconds

Minor 7th Grove

01234567891011121314151617181920212223
E
B
G
D
A
E
B
0 1 2 3 4 5 6 7 8 9 10 11 12 13 14 15 16 17 18 19 20 21 22 23
Song Science #1: How Pros Use 6 Chords to Write Hit Songs
(/) Slide Up  (\) Slide Down  (h) Hammer On  (p) Pull Off  (b) Bend (r) Release (v) Vibrato

Stave 1:

E|-----------------1-4-8-4-------------------------------------8-11-13-11-------------------------
B|-------------1-4---------6-4-------------------------------9------------13----------------------
G|-----------1-----------------5------------------------8-10-----------------13-10----------------
D|-------1-3---------------------6-3-----------------10----------------------------13-10----------
A|-----3-----------------------------6-3--------8-11-------------------------------------11-------
E|-1-4-----------------------------------4-8-11---------------------------------------------13-11-

Stave 2:

E|-------------------------13-16-13-----------------------------------------------8-11-8-------------
B|-------------------13-16----------16-13-------------------------------------6-9--------9-6---------
G|----------------13----------------------13-10---------------------------5-8----------------8-5-----
D|----------13-15-------------------------------13-10-----------------3-6------------------------6-3-
A|----11-15-------------------------------------------11-8--------3-6--------------------------------
E|-13------------------------------------------------------11-8-4------------------------------------

Stave 3:

E|-------------------------4-8-11-13-16-20-16--------------------------------------------------------
B|-----------------------6--------------------18-16---------------------------------------------9-13-
G|-------------------5-8----------------------------17-13----------------------------------8-10------
D|-----------------6--------------------------------------15-13-----------------------6-10-----------
A|-6-3---------6-8----------------------------------------------15-11-------------6-8----------------
E|-----4-1-4-8--------------------------------------------------------13-11-8-4-8--------------------

Stave 4:

E|-11-13-11--------------------------------------------------------16-20-16-13-11-8-4-----------------
B|----------13-9---------------------------------------------16-18--------------------6---------------
G|---------------10-8----------------------------------13-17----------------------------8-5-----------
D|--------------------10-6-----------------------13-15--------------------------------------6---------
A|-------------------------8-6-------------11-15----------------------------------------------8-6-----
E|-----------------------------8-4-8-11-13--------------------------------------------------------8-4-

Stave 5:

E|---------------------8-11-8-----------------------------------------------13-16-13-------------------
B|-----------------6-9--------9-6-------------------------------------13-16----------16-13-------------
G|-------------5-8----------------8-5---------------------------10-13----------------------13----------
D|---------3-6------------------------6-3-----------------10-13-------------------------------15-13----
A|-----3-6--------------------------------6-3--------8-11-------------------------------------------15-
E|-1-4----------------------------------------4-8-11---------------------------------------------------

Stave 6:

E|-------------------------------11-13-11-8-------------------------------------4-8-4-1-----------------
B|----------------------------13------------9-------------------------------4-6---------4-1-------------
G|----------------------10-13-----------------10-8------------------------5-----------------1-----------
D|----------------10-13----------------------------10-----------------3-6---------------------3-1-------
A|-11----------11-------------------------------------11-8--------3-6-----------------------------3-----
E|----13-11-13---------------------------------------------11-8-4-----------------------------------4-1-

http://www.guitartabcreator.com
Guitar Tab Creator is intended to store guitar tab created through the tool. It currently does not support in-line text editing. Any text you place in here will be lost. If you need to comment on your tab, please use the "Tab Notes" section located below.