Sound will begin in 5 seconds

Major 7th Grove

01234567891011121314151617181920212223
E
B
G
D
A
E
B
0 1 2 3 4 5 6 7 8 9 10 11 12 13 14 15 16 17 18 19 20 21 22 23
Song Science #1: How Pros Use 6 Chords to Write Hit Songs
(/) Slide Up  (\) Slide Down  (h) Hammer On  (p) Pull Off  (b) Bend (r) Release (v) Vibrato

Stave 1:

E|---------------1-2-6-9-6-------------------------------------9-13-14-13----------------------------
B|-------------2-----------7-6------------------------------11------------14-11----------------------
G|-----------3-----------------6----------------------10-11---------------------11-------------------
D|-------3-4---------------------8-4-------------8-11------------------------------15-11-------------
A|---1-4-----------------------------8-4-----8-9-----------------------------------------13----------
E|-2-------------------------------------6-9------------------------------------------------14-13-14-

Stave 2:

E|-------------------13-14-18-14---------------------------------------------6-9-13-9---------------
B|----------------14-------------18-14-----------------------------------6-7----------11-7----------
G|----------11-15----------------------15-11---------------------------6-------------------10-6-----
D|----11-15----------------------------------15-11-------------------8--------------------------8-4-
A|-13----------------------------------------------13-9----------8-9--------------------------------
E|------------------------------------------------------13-9-6-9------------------------------------

Stave 3:

E|-------------------------6-9-13-14-13-----------------------------------------------------14-18-14-
B|---------------------6-7--------------14-11-----------------------------------------14-18----------
G|-------------------6------------------------11--------------------------------11-15----------------
D|---------------4-8-----------------------------15-11--------------------11-15----------------------
A|-8-4-------4-8---------------------------------------13-9------------13----------------------------
E|-----6-2-6------------------------------------------------13-9-13-14-------------------------------

Stave 4:

E|-----------------------------------------------------13-14-13-9-6----------------------------------
B|-18-14-----------------------------------------11-14--------------7-6------------------------------
G|-------15-11--------------------------------11------------------------6-----------------------6-10-
D|-------------15-11--------------------11-15-----------------------------8-4---------------4-8------
A|-------------------13------------9-13---------------------------------------8-4-------4-8----------
E|----------------------14-13-9-13------------------------------------------------6-2-6--------------

Stave 5:

E|------9-13-9-6---------------------------------------------14-18-14-13----------------------------
B|-7-11----------7-6-----------------------------------14-18-------------14-------------------------
G|-------------------6---------------------------11-15----------------------15-11-------------------
D|---------------------8-------------------11-15----------------------------------15-11-------------
A|-----------------------9-8----------9-13----------------------------------------------13----------
E|---------------------------9-6-9-13------------------------------------------------------14-13-14-

Stave 6:

E|-------------------13-14-13-9-------------------------------------6-9-6-2-1---------------
B|-------------11-14------------11------------------------------6-7-----------2-------------
G|----------11---------------------11-10----------------------6-----------------3-----------
D|----11-15------------------------------11-8-------------4-8---------------------4-3-------
A|-13-----------------------------------------9-8-----4-8-----------------------------4-1---
E|------------------------------------------------9-6-------------------------------------2-

http://www.guitartabcreator.com
Guitar Tab Creator is intended to store guitar tab created through the tool. It currently does not support in-line text editing. Any text you place in here will be lost. If you need to comment on your tab, please use the "Tab Notes" section located below.