Sound will begin in 5 seconds

Blues Licks

01234567891011121314151617181920212223
E
B
G
D
A
E
B
0 1 2 3 4 5 6 7 8 9 10 11 12 13 14 15 16 17 18 19 20 21 22 23
Song Science #1: How Pros Use 6 Chords to Write Hit Songs
(/) Slide Up  (\) Slide Down  (h) Hammer On  (p) Pull Off  (b) Bend (r) Release (v) Vibrato

Stave 1:

E|-------------------|-------------------------
B|-------------------|-------------------------
G|-----5---7---5-7---|-------------------------
D|-5/7---7---7-----7-|-5-----------------------
A|-------------------|---7-5-7\5-3---5---3-5---
E|-------------------|-------------5---5-----5-

Stave 2:

E|-----5-5-----5-5-----5-5-5---|-------5--------|-----5--------
B|-----5-5-----5-5-----5-5-5---|-----5---5-8b10-|-------5-8b10-
G|-7b9-----7b9-----7b9-----7b9-|-7b9------------|-7b9----------
D|-----------------------------|----------------|--------------
A|-----------------------------|----------------|--------------
E|-----------------------------|----------------|--------------

Stave 3:

E|-----5----------|-----5----------5-----8b10-|-8-5---5-8-5-
B|-------8p5-8b10-|-------8p5-8b10---8p5------|-----5-------
G|-7b9------------|-7b9-----------------------|-------------
D|----------------|---------------------------|-------------
A|----------------|---------------------------|-------------
E|----------------|---------------------------|-------------

Stave 4:

E|--------------8-------------------|-8--------5--------5---5h7p5-----5------
B|-----8---8-10---10-8--------------|---10p8\5---5-8b10---5-------8-5---8b10-
G|-7/9---9-------------9-9\7--5-----|----------------------------------------
D|------------------------------7-7-|----------------------------------------
A|----------------------------------|----------------------------------------
E|----------------------------------|----------------------------------------

Stave 5:

E|-|------------------------------15-------|-------------------15-------|-----------15b17-
B|-|-----8------10-------13-15b17----15b17-|----13-15-13-15b17----15b17-|-17r15p13--------
G|-|-3/9---9/12----12/14-------------------|-14-------------------------|-----------------
D|-|---------------------------------------|----------------------------|-----------------
A|-|---------------------------------------|----------------------------|-----------------
E|-|---------------------------------------|----------------------------|-----------------

http://www.guitartabcreator.com
Guitar Tab Creator is intended to store guitar tab created through the tool. It currently does not support in-line text editing. Any text you place in here will be lost. If you need to comment on your tab, please use the "Tab Notes" section located below.