Snart tystnar musiken bandtonart

Chords
01234567891011121314151617181920212223
E
B
G
D
A
E
B
0 1 2 3 4 5 6 7 8 9 10 11 12 13 14 15 16 17 18 19 20 21 22 23
(/) Slide Up  (\) Slide Down  (h) Hammer On  (p) Pull Off  (b) Bend (r) Release (v) Vibrato

E|-14-13-14-------------|-18-18b19-18-14-|---------------------------------|-
B|----------14-14-14b16-|----------------|----14-14h16--------11v----------|-
G|----------------------|----------------|-15-----------11-13-----13p11h13-|-
D|----------------------|----------------|---------------------------------|-
A|----------------------|----------------|---------------------------------|-
E|----------------------|----------------|---------------------------------|-



E|-------------------------------------------|-
B|-------11----------------------------------|-
G|-11-13----11----------11-------------------|-
D|-------------13-11-13-------11-13-------11-|-
A|-------------------------13-------11-13----|-
E|-------------------------------------------|-
							http://www.guitartabcreator.com
[[],[],[],[],[],[]]

Member for

8 years 7 months
Submitted by agnusbaby on Sun, 2011-10-09 15:27