Lightning strikes

Chords

01234567891011121314151617181920212223
E
B
G
D
A
E
B
0 1 2 3 4 5 6 7 8 9 10 11 12 13 14 15 16 17 18 19 20 21 22 23
(/) Slide Up  (\) Slide Down  (h) Hammer On  (p) Pull Off  (b) Bend (r) Release (v) Vibrato


E|---------------------------------------------------------------------------
B|---------------------------------------------------------------------------
G|---------------------------------------------------------------------------
D|---------------------------------------------------------------------------
A|---------------------------------------------------------------------------
E|-7-7-7-7-10-10-10-10-9-9-9-9-8-8-8-8-7-7-7-7-10-10-10-10-9-9-9-9-8-8-8-8-8-



E|-------------------------------------------------------------------------
B|-------------------------------------------------------------------------
G|-------------------------------------------------------------------------
D|-------------------------------------------------------------------------
A|-------------------------------------------------------------------------
E|-7-7-7-7-10-10-10-10-9-9-9-9-8-8-8-8-7-7-7-7-10-10-10-10-9-9-9-9-8-8-8-8-



E|-----------------------------------------------------------------------
B|-----------------------------------------------------------------------
G|-----------------------------------------------------------------------
D|-----------------------------------------------------------------------
A|-----------------------------------------------------------------------
E|-7-7-7-7-10-10-10-10-9-9-9-9-8-8-8-8-7-7-7-7-10-10-10-10-9-9-9-9-8-8-8-



E|-------------------------------------------------------------------------
B|-------------------------------------------------------------------------
G|-------------------------------------------------------------------------
D|-------------------------------------------------------------------------
A|-------------------------------------------------------------------------
E|-7-7-7-7-10-10-10-10-9-9-9-9-8-8-8-8-7-7-7-7-10-10-10-10-9-9-9-9-8-8-8-8-



E|-------------------------------------------------------------------------
B|-------------------------------------------------------------------------
G|-------------------------------------------------------------------------
D|-------------------------------------------------------------------------
A|-------------------------------------------------------------------------
E|-7-7-7-7-10-10-10-10-9-9-9-9-8-8-8-8-7-7-7-7-10-10-10-10-9-9-9-9-8-8-8-8-



E|---------
B|---------
G|---------
D|---------
A|-7-7-7-7-
E|---------



						http://www.guitartabcreator.com
[[],[],[],[],[],[]]

Member for

8 years 8 months
Submitted by afdeditch99 on Fri, 2011-10-21 15:13