peace without hope

Chords

01234567891011121314151617181920212223
E
B
G
D
A
E
B
0 1 2 3 4 5 6 7 8 9 10 11 12 13 14 15 16 17 18 19 20 21 22 23
(/) Slide Up  (\) Slide Down  (h) Hammer On  (p) Pull Off  (b) Bend (r) Release (v) Vibrato


   peace without hope
   District of columbia
   Pardon the invasion



E|-----------------------|
B|-----------------------|
G|--Joshua-Elkins-Lead---|
D|-----played with-------|
A|-----guitar-slide------|
E|-----------------------|
 |
E|-----------------------|
B|-----------------------|
G|--David-Chavez-rythem--|
D|-----------------------|
A|-----------------------|
E|-----------------------| 

 1:00
E|--------------------------------|
B|--------------------------------|
G|--album-intro-slide free-play---|
D|--------------------------------|
A|--------------------------------|
E|--------------------------------|

 Intro

   p.m.~~~~~~~~~~~~~~~~~~~~~~~~~~~~~~~~~~~~~~~~~~~~~~~~~~~~~~
E|---------------------------------------------------------------------|
B|---------------------------------------------------------------------|
G|--5~~~---3-----------------------------------------------------------|
D|------------5----3~~~~~-------3---1---0~~~~~-----3---1---------------|
A|----------------------------------------------------------3~~~~~-----|
E|---------------------------------------------------------------------|
 |
E|---------------------------------------------------------------------|
B|---------------------------------------------------------------------|
G|---------------------------------------------------------------------|
D|---------------------------------------------------------------------|
A|---------------------------------------------------------------------|
E|---------------------------------------------------------------------|X12


 verse 1

E|----------------------------|
B|----------------------------|
G|--3\\-----5----3\\------8---|
D|--3\\-----5----3\\------8---|
A|----------------------------|
E|----------------------------|
 |
E|--1\\-----3----1\\------6---|
B|--1\\-----3----1\\------6---|
G|--2\\-----4----2\\------7---|
D|--3\\-----5----3\\------8---|
A|--3\\-----5----3\\------8---|
E|--1\\-----3----1\\------6---|X8

pre-chorus

E|-----------------------------|
B|-----------------------------|
G|-------------------5b---5p3--|
D|-----------------------------|
A|-----------------------------|
E|-----------------------------|
 |
E|---3--3--3--3--3--------------|
B|---3--3--3--3--3--------------|
G|---4--4--4--4--4--------------|
D|---5--5--5--5--5--------------|
A|---5--5--5--5--5--------------|
E|---3--3--3--3--3--------------|

  chorus

E|-----------------------------------------------5\\---7---------------------------------------|
B|-----------------------------------------------6\\---8---------------------------------------|
G|----3p5-3---------------8------5bp0--8----3----5\\---7--7p5----------7---7b--5~~~--3---------|
D|----------5--3--1--0----8------------8----3------------------7----9--------------------5--3--|
A|---------------------------------------------------------------------------------------------|
E|---------------------------------------------------------------------------------------------|
 |
E|--1~~~------------------6~~~-----------------------------------------------------------------|
B|--1~~~------------------6~~~-----------------------------------------------------------------|
G|--2~~~------------------7~~~-------------------5\\---7---------------------------------------|
D|--3~~~------------------8~~~-------------------5\\---7---------------------------------------|
A|--3~~~------------------8~~~-------------------3\\---5---------------------------------------|
E|--1~~~------------------6~~~-----------------------------------------------------------------|



E|--------------------------------------------|
B|--------------------------------------------|
G|------------------------------5p3----8------|
D|---3--1--0----3--1------------5p3----8------|
A|---------------------3----------------------|
E|--------------------------------------------|
 |
E|-------------------------------------6------|
B|-------------------------------------6------|
G|-------------------------------------7------|
D|-------------------------------------8------|
A|-------------------------------------8------|
E|-------------------------------------6------|

verse 2

E|----------------------------|
B|----------------------------|
G|--3\\-----5----3\\------8---|
D|--3\\-----5----3\\------8---|
A|----------------------------|
E|----------------------------|
 |
E|--1\\-----3----1\\------6---|
B|--1\\-----3----1\\------6---|
G|--2\\-----4----2\\------7---|
D|--3\\-----5----3\\------8---|
A|--3\\-----5----3\\------8---|
E|--1\\-----3----1\\------6---|X8

pre-chorus

E|-----------------------------|
B|-----------------------------|
G|-------------------5b---5p3--|
D|-----------------------------|
A|-----------------------------|
E|-----------------------------|
 |
E|---3--3--3--3--3--------------|
B|---3--3--3--3--3--------------|
G|---4--4--4--4--4--------------|
D|---5--5--5--5--5--------------|
A|---5--5--5--5--5--------------|
E|---3--3--3--3--3--------------|

 chorus

E|-----------------------------------------------5\\---7---------------------------------------|
B|-----------------------------------------------6\\---8---------------------------------------|
G|----3p5-3---------------8------5bp0--8----3----5\\---7--7p5----------7---7b--5~~~--3---------|
D|----------5--3--1--0----8------------8----3------------------7----9--------------------5--3--|
A|---------------------------------------------------------------------------------------------|
E|---------------------------------------------------------------------------------------------|
 |
E|--1~~~------------------6~~~-----------------------------------------------------------------|
B|--1~~~------------------6~~~-----------------------------------------------------------------|
G|--2~~~------------------7~~~-------------------5\\---7---------------------------------------|
D|--3~~~------------------8~~~-------------------5\\---7---------------------------------------|
A|--3~~~------------------8~~~-------------------3\\---5---------------------------------------|
E|--1~~~------------------6~~~-----------------------------------------------------------------|



E|--------------------------------------------|
B|--------------------------------------------|
G|------------------------------5p3----8------|
D|---3--1--0----3--1------------5p3----8------|
A|---------------------3----------------------|
E|--------------------------------------------|
 |
E|-------------------------------------6------|
B|-------------------------------------6------|
G|-------------------------------------7------|
D|-------------------------------------8------|
A|-------------------------------------8------|
E|-------------------------------------6------|
[[],[],[],[],[],[]]

Member for

8 years 9 months
Submitted by acdcreigns on Mon, 2011-09-26 08:58