Sound will begin in 5 seconds

Cold Rhythm

01234567891011121314151617181920212223
E
B
G
D
A
E
B
0 1 2 3 4 5 6 7 8 9 10 11 12 13 14 15 16 17 18 19 20 21 22 23
Song Science #1: How Pros Use 6 Chords to Write Hit Songs
(/) Slide Up  (\) Slide Down  (h) Hammer On  (p) Pull Off  (b) Bend (r) Release (v) Vibrato

Stave 1:

E|---------------------------------------------------------------------------------------------------
B|---------------------------------------------------------------------------------------------------
G|--------0h3p0--------0h3p0--------0h3p0--------0h3p0--------0h3p0--------0h3p0--------0h3p0--------
D|-----0------------0------------0------------0------------0------------0------------0------------0--
A|---------------------------------------------------------------------------------------------------
E|--5------------5------------3------------3------------1------------1------------0------------0-----

Stave 2:

E|---------------------------------------------------------------------------------------------------
B|---------------------------------------------------------------------------------------------------
G|--3/2--------0h3p0--------3p0--------0h3p0--------5--------0h3p0--------0-------------0h3p0--------
D|----------0------------0----------0------------0--------0------------0-----3p0-----0------------0--
A|---------------------------------------------------------------------------------------------------
E|-------5------------5----------3------------3--------1------------1-------------0------------0-----

Stave 3:

E|-------------------------------------------------------3--3--3--3--3--3--3--1--1--1--1-----2--5--2--
B|-------------------------------------------------------3--3--3--3--3--3--3--1--1--1--1-----3--3--3--
G|--3/2--------------------------------------------------3--3--3--3--5--5--5--3--3--3--3-----2--2--2--
D|-------5--5--5--5--3--3--3--3--1--1--1--1--0--0--0--0--5--5--5--5--3--3--3--1--1--1--1--0--0--0--0--
A|-------5--5--5--5--3--3--3--3--1--1--1--1--0--0--0--0--5--5--5--5--3--3--3--1--1--1--1--0--0--0--0--
E|-------5--5--5--5--3--3--3--3--1--1--1--1--0--0--0--0--5--5--5--5--3--3--3--1--1--1--1--0--0--0--0--

Stave 4:

E|--3--3--3--3--3--3--3--3--1--1--1--1--2--2--------------------------------------------------------
B|--3--3--3--3--3--3--4--3--1--1--2--1--3--3--------------------------------------------------------
G|--3--3--3--3--5--5--5--5--3--3--3--3--2--2----------0h3p0--------3p0--------0h3p0--------5--------
D|--5--5--5--5--3--3--3--3--1--1--1--1--0--0-------0------------0----------0------------0--------0--
A|--5--5--5--5--3--3--3--3--1--1--1--1--0--0--------------------------------------------------------
E|--5--5--5--5--3--3--3--3--1--1--1--1--0--0----5------------5----------3------------3--------1-----

Stave 5:

E|----------------------------------------------------------------------------------------------------
B|----------------------------------------------------------------------------------------------------
G|--0h3p0--------0h3p0--------0h3p0--------3/2--------0-----0-----0-----------0-----0-----0-----------
D|------------0------------0------------0----------0-----0-----0-----0-----0-----0-----0-----0-----0--
A|----------------------------------------------------------------------------------------------------
E|---------1------------0------------0----------5-----------------------3-----------------------1-----

Stave 6:

E|--------------------------------------------------------------------------------------------------
B|--------------------------------------------------------------------------------------------------
G|--0-----0-----0-----------3-----2-----2-----------3-----3-----3-----------3-----3-----3-----------
D|-----0-----0-----0-----0-----0-----0-----0-----0-----0-----0-----0-----0-----0-----0-----0-----0--
A|--------------------------------------------------------------------------------------------------
E|--------------------0-----------------------5-----------------------3-----------------------0-----

Stave 7:

E|--------------------------------------------------------------------------------------------------
B|--------------------------------------------------------------------------------------------------
G|--3-----2-----2-----------3-----5-----5-----------3-----5-----5-----------3-----5-----5-----------
D|-----0-----0-----0-----0-----0-----0-----0-----0-----0-----0-----0-----0-----0-----0-----0-----0--
A|--------------------------------------------------------------------------------------------------
E|--------------------5-----------------------3-----------------------1-----------------------0-----

Stave 8:

E|--------------------------------------------------------------------------------------------------
B|--------------------------------------------------------------------------------------------------
G|--3-----5-----2-----------3-----5-----7-----------3-----5-----7-----------3-----5-----7-----------
D|-----0-----0-----0-----0-----0-----0-----0-----0-----0-----0-----0-----0-----0-----0-----0-----0--
A|--------------------------------------------------------------------------------------------------
E|--------------------5-----------------------3-----------------------1-----------------------0-----

Stave 9:

E|----------------------------------------------------------
B|----------------------------------------------------------
G|--5-----3-----2-------------------------------------------
D|-----0-----0-----0----------------------------------------
A|----------------------------------------------------------
E|--------------------------5----3----1----0/3/4------5-----

http://www.guitartabcreator.com
Guitar Tab Creator is intended to store guitar tab created through the tool. It currently does not support in-line text editing. Any text you place in here will be lost. If you need to comment on your tab, please use the "Tab Notes" section located below.