Sound will begin in 5 seconds

בית הבובות - עד באת

Chords
01234567891011121314151617181920212223
E
B
G
D
A
E
B
0 1 2 3 4 5 6 7 8 9 10 11 12 13 14 15 16 17 18 19 20 21 22 23
Song Science #1: How Pros Use 6 Chords to Write Hit Songs
(/) Slide Up  (\) Slide Down  (h) Hammer On  (p) Pull Off  (b) Bend (r) Release (v) Vibrato

Stave 1:

E|--------7--10--
B|-----8---------
G|--7------------
D|---------------
A|---------------
E|---------------

Stave 2:

E|--------5--8--
B|--4--7--------
G|--------------
D|--------------
A|--------------
E|--------------

Stave 3:

E|-----0--2--3--5--3--2h3--
B|--0----------------------
G|-------------------------
D|-------------------------
A|-------------------------
E|-------------------------

Stave 4:

E|--10--7--------
B|---------8--7--
G|---------------
D|---------------
A|---------------
E|---------------

Stave 5:

E|--5--2--------
B|--------3--2--
G|--------------
D|--------------
A|--------------
E|--------------

Stave 6:

E|----5--2--------
B|----------4--0--
G|----------------
D|----------------
A|----------------
E|----------------

Stave 7:

E|--------7--10--
B|-----8---------
G|--7------------
D|---------------
A|---------------
E|---------------

Stave 8:

E|---------------8---------------
B|--------7--10-----7--10--9--8--
G|-----8-------------------------
D|--9----------------------------
A|-------------------------------
E|-------------------------------

Stave 9:

E|--3----
B|--3h5--
G|-------
D|-------
A|-------
E|-------

Stave 10:

E|----------
B|--3-------
G|--2h4--0--
D|----------
A|----------
E|----------

Stave 11:

E|--5--2--------
B|--------3-----
G|-----------2--
D|--------------
A|--------------
E|--------------

Stave 12:

E|--5--2----------
B|--------4-------
G|-----------4/8--
D|----------------
A|----------------
E|----------------

Stave 13:

E|-----7----
B|--7-------
G|----------
D|----------
A|----------
E|----------

http://www.guitartabcreator.com
Guitar Tab Creator is intended to store guitar tab created through the tool. It currently does not support in-line text editing. Any text you place in here will be lost. If you need to comment on your tab, please use the "Tab Notes" section located below.