Sound will begin in 5 seconds

House Is Rockin Solo

Chords
01234567891011121314151617181920212223
E
B
G
D
A
E
B
0 1 2 3 4 5 6 7 8 9 10 11 12 13 14 15 16 17 18 19 20 21 22 23
Song Science #1: How Pros Use 6 Chords to Write Hit Songs
(/) Slide Up  (\) Slide Down  (h) Hammer On  (p) Pull Off  (b) Bend (r) Release (v) Vibrato

Stave 1:

E|------7------7------7------7------7------7------7------7------7--------------|-
B|------7------7------7------7------7------7------7------7------7--------------|-
G|-9b11---9b11---9b11---9b11---9b11---9b11---9b11---9b11---9b11---9b11b9-7b8-9-|-
D|-----------------------------------------------------------------------------|-
A|-----------------------------------------------------------------------------|-
E|-----------------------------------------------------------------------------|-

Stave 2:

E|--------------------|--------------------|-------------------|------------------|-
B|--------------------|----------------9---|-7-7-------------7-|------------------|-
G|-7-9-9b11-9v----7---|-7-9b11b9-7-----9---|-7-8-----6-9-7h8---|-9---7-8-----7--9-|-
D|------------------9-|------------9-9---9-|-----9-------------|---9-------9------|-
A|--------------------|--------------------|-------9-----------|------------------|-
E|--------------------|--------------------|-------------------|------------------|-

Stave 3:

E|----------------------|----------------------|--------------------------|-7-7-7--7--
B|----------------------|----------------------|--------7------7----------|-7-7-7--7--
G|-9b10b9-7---------7---|---9b10b9-7-9-7b8---7-|---9b11---9b11-------9b11-|---9----9--
D|----------------------|------------------9---|--------------------------|----------
A|----------9-----9---9-|-9--------------------|-9------------------------|----------
E|----------------------|----------------------|--------------------------|----------

Stave 4:

E|----------------------|----------------------|--------------------------|-------------------------|-
B|----------------------|----------------------|--------------------------|-------------------------|-
G|----------------------|----------------------|--------------------------|-------------------------|-
D|----------------------|----------------------|--------------------------|-------------------------|-
A|----------------------|----------------------|--------------------------|-------------------------|-
E|----------------------|----------------------|--------------------------|-------------------------|-

Stave 5:

E|--
B|--
G|--
D|--
A|--
E|--

http://www.guitartabcreator.com
Guitar Tab Creator is intended to store guitar tab created through the tool. It currently does not support in-line text editing. Any text you place in here will be lost. If you need to comment on your tab, please use the "Tab Notes" section located below.