Sound will begin in 5 seconds

The House Is A Rockin

Chords
01234567891011121314151617181920212223
E
B
G
D
A
E
B
0 1 2 3 4 5 6 7 8 9 10 11 12 13 14 15 16 17 18 19 20 21 22 23
Song Science #1: How Pros Use 6 Chords to Write Hit Songs
(/) Slide Up  (\) Slide Down  (h) Hammer On  (p) Pull Off  (b) Bend (r) Release (v) Vibrato

Stave 1:

E|-----------|--9------7-----5-----------|--9------7-----5-----------|--
B|-----------|--10-----9-----7-----------|--10-----9-----7-----------|--
G|--6--7--8--|------8-----8-----6--7--8--|------8-----8-----6--7--8--|--
D|-----------|---------------------------|---------------------------|--
A|-----------|---------------------------|---------------------------|--
E|-----------|---------------------------|---------------------------|--

Stave 2:

E|--9------------9------------|--9------7-----5--------------|--14------12------10----------|--14------12------10-----------
B|--10-----------10-----------|--10-----9-----7--------------|--15------14------12----------|--15------14------12-----------
G|--_--6--7--8------6--7--8--|------8-----8-----11--12--13--|------13------13------11--12--|------13------13------6--7--8--
D|--_------------------------|------------------------------|------------------------------|-------------------------------
A|--_------------------------|------------------------------|------------------------------|-------------------------------
E|--_------------------------|------------------------------|------------------------------|-------------------------------

Stave 3:

E|----9------7-----5-----4--2--|-----2-----2-----2-----2-------------|--
B|----10-----9-----7-----5--3--|--4-----4-----4-----4-----4----------|--
G|--------8-----8-----8--------|-----------------------------13--14--|--
D|-----------------------------|-------------------------------------|--
A|-----------------------------|-------------------------------------|--
E|-----------------------------|-------------------------------------|--

Stave 4:

E|------14--------------12----------|------11-------------9--|-----7--------------|-----------------------|--
B|----------------------------------|------------------------|--------------9-----|--7-----5-----3--------|--
G|--15------15--14--13------13--12--|--11------11--10--9-----|--8-----8--8-----8--|-----7-----6-----4--4--|--
D|----------------------------------|------------------------|--------------9-----|--7-----6-----4--------|--
A|----------------------------------|------------------------|--------------------|--------------------6--|--
E|----------------------------------|------------------------|--------------------|-----------------------|--

Stave 5:

E|----
B|----
G|----
D|----
A|----
E|----

Stave 6:

E|----
B|----
G|----
D|----
A|----
E|----

http://www.guitartabcreator.com
Guitar Tab Creator is intended to store guitar tab created through the tool. It currently does not support in-line text editing. Any text you place in here will be lost. If you need to comment on your tab, please use the "Tab Notes" section located below.