Sound will begin in 5 seconds

Fight Of The Bumblebee

01234567891011121314151617181920212223
E
B
G
D
A
E
B
0 1 2 3 4 5 6 7 8 9 10 11 12 13 14 15 16 17 18 19 20 21 22 23
Song Science #1: How Pros Use 6 Chords to Write Hit Songs
(/) Slide Up  (\) Slide Down  (h) Hammer On  (p) Pull Off  (b) Bend (r) Release (v) Vibrato

Stave 1:

E|-12-11-10-9-|-10-9-8-7-|-8-7-6-5-|---------|---------|---------|---------|---------|---------|-
B|------------|----------|---------|-9-8-7-6-|---------|---------|---------|---------|---------|-
G|------------|----------|---------|---------|-9-8-7-6-|-7-6-5-4-|-5-4-3-2-|---------|---------|-
D|------------|----------|---------|---------|---------|---------|---------|-6-5-4-3-|---------|-
A|------------|----------|---------|---------|---------|---------|---------|---------|-7-6-5-4-|-
E|------------|----------|---------|---------|---------|---------|---------|---------|---------|-

Stave 2:

E|---------|---------|---------|---------|---------|---------|---------|---------|---------|-
B|---------|---------|---------|---------|---------|---------|---------|---------|---------|-
G|---------|---------|---------|---------|---------|---------|---------|---------|---------|-
D|---------|---------|---------|---------|---------|---------|---------|---------|---------|-
A|-5-4-3-2-|-7-6-5-4-|-5-4-3-2-|-7-6-5-4-|---8-7-6-|-7-6-5-4-|---4-5-6-|-7-6-5-4-|---8-7-6-|-
E|---------|---------|---------|---------|-8-------|---------|-8-------|---------|-8-------|-

Stave 3:

E|---------|---------|---------|---------|---------|---------|---------|---------|---------|-
B|---------|---------|---------|---------|---------|---------|---------|---------|---------|-
G|---------|---------|---------|---------|---------|---------|---------|---------|---------|-
D|---------|---------|---------|---------|---------|---------|---------|---------|---------|-
A|-7-6-5-4-|---4-5-6-|-7-6-5-4-|-5-4-----|---4-5-6-|-7-8-7-6-|-7-6-5-4-|-5-4-----|---4-5-6-|-
E|---------|-8-------|---------|-----8-7-|-8-------|---------|---------|-----8-7-|-8-------|-

Stave 4:

E|---------|---------|---------|---------|---------|---------|---------|---------|---------|---
B|---------|---------|---------|---------|---------|---------|---------|---------|---------|---
G|---------|---------|---------|---------|---------|---------|---------|---------|---------|---
D|---4-5-6-|-7-6-5-4-|---8-7-6-|-7-6-5-4-|---4-5-6-|-7-6-5-4-|---8-7-6-|-7-6-5-4-|---4-5-6-|---
A|-7-------|---------|-8-------|---------|-8-------|---------|-8-------|---------|-8-------|---
E|---------|---------|---------|---------|---------|---------|---------|---------|---------|---

Stave 5:

E|---------|---------|---------|---------|---------|---------|-------------|-----------------|-
B|---------|---------|---------|---------|---------|---------|-------------|-----------------|-
G|---------|---------|---------|---------|---------|---------|-------------|-----------------|-
D|-7-6-5-4-|-5-4-----|---4-5-6-|-7-8-7-6-|-7-6-5-4-|-5-4-----|---4-5-6-7-8-|-----------------|-
A|---------|-----8-7-|-8-------|---------|---------|-----8-7-|-8-----------|-----------------|-
E|---------|---------|---------|---------|---------|---------|-------------|-5-7-5-7-5-7-5-7-|-

Stave 6:

E|-----------------|-----------------|-------------------|-----------------|-----------------|-
B|-----------------|-----------------|-------------------|-----------------|-----------------|-
G|-----------------|-----------------|-------------------|-----------------|-----------------|-
D|-----------------|-----------------|-------------------|-7-8-7-6-7-8-7-6-|-7-8-7-6-7-8-7-6-|-
A|-----------------|-----------------|-------------------|-----------------|-----------------|-
E|-4-6-4-6-4-6-4-6-|-5-7-5-7-5-7-5-7-|-4-6-4-6-4-6-4-6-4-|-----------------|-----------------|-

Stave 7:

E|--------------------|--------------------|-----------------|-----------------|-----------------
B|--------------------|--------------------|-----------------|-----------------|-----------------
G|--------------------|--------------------|-----------------|-----------------|-----------------
D|-7-8-9-10-11-10-9-8-|-7-8-9-10-11-10-9-8-|-7---------------|-----------------|-----------------
A|--------------------|--------------------|---5-7-5-7-5-7-5-|-4-6-4-6-4-6-4-6-|-5-7-5-7-5-7-5-7-
E|--------------------|--------------------|-----------------|-----------------|-----------------

Stave 8:

E|-----------------|-----------------|-----------------|--------------------|--------------------
B|-----------------|-----------------|-----------------|--------------------|--------------------
G|-----------------|-7-8-7-6-7-8-7-6-|-7-8-7-6-7-8-7-6-|-7-8-9-10-11-10-9-8-|-7-8-9-10-11-10-9-8-
D|-----------------|-----------------|-----------------|--------------------|--------------------
A|-4-6-4-6-4-6-4-6-|-----------------|-----------------|--------------------|--------------------
E|-----------------|-----------------|-----------------|--------------------|--------------------

Stave 9:

E|---------|---------|---------|---------|---------|---------|---------|---------|-12-11-10-9-|-
B|---------|---------|---------|---------|---------|---------|---------|---------|------------|-
G|-7-6-5-4-|---8-7-6-|-7-6-5-4-|-3-4-5-6-|-7-6-5-4-|-5-4-----|---4-5-6-|-5-6-7-8-|------------|-
D|---------|-8-------|---------|---------|---------|-----8-7-|-8-------|---------|------------|-
A|---------|---------|---------|---------|---------|---------|---------|---------|------------|-
E|---------|---------|---------|---------|---------|---------|---------|---------|------------|-

Stave 10:

E|-10-9-8-7-|-8-7-6-5-|---------|----------|----------|----------|----------|----------|-
B|----------|---------|-9-8-7-6-|----------|----------|----------|----------|----------|-
G|----------|---------|---------|-9-10-9-8-|-9-10-9-8-|-9-10-9-8-|-9-10-9-8-|-9-10-9-8-|-
D|----------|---------|---------|----------|----------|----------|----------|----------|-
A|----------|---------|---------|----------|----------|----------|----------|----------|-
E|----------|---------|---------|----------|----------|----------|----------|----------|-

Stave 11:

E|----------|----------|----------|------------|----------|---------|---------|---------|-
B|----------|----------|----------|------------|----------|---------|---------|---------|-
G|-9-10-9-8-|-9-10-9-8-|-9-10-9-8-|------------|----------|---------|---------|---------|-
D|----------|----------|----------|------------|----------|---------|---------|---------|-
A|----------|----------|----------|------------|----------|---------|---------|-7-8-7-6-|-
E|----------|----------|----------|-12-11-10-9-|-10-9-8-7-|-8-7-6-5-|-4-3-2-1-|---------|-

Stave 12:

E|---------|---------|---------|---------|---------|---------|---------|---------|---------|-----
B|---------|---------|---------|---------|---------|---------|---------|---------|---------|-----
G|---------|---------|---------|---------|---------|---------|---------|---------|---------|-----
D|---------|---------|---------|---------|---------|---------|---------|---------|---------|-----
A|-7-8-7-6-|-7-8-7-6-|-7-8-7-6-|-7-8-7-6-|-7-8-7-6-|-7-8-7-6-|-7-8-7-6-|---------|---------|-----
E|---------|---------|---------|---------|---------|---------|---------|-0-1-2-3-|-4-5-6-7-|-----

Stave 13:

E|---------|----------|---------|---------|----------|----------|---------|---------------------
B|---------|----------|---------|---------|----------|----------|---------|---------------------
G|---------|----------|---------|-5-6-7-8-|-9-10-9-8-|-9-10-9-8-|-9-8-7-6-|---------------------
D|---------|----------|-6-7-8-9-|---------|----------|----------|---------|---------------------
A|-3-4-5-6-|-7-8-9-10-|---------|---------|----------|----------|---------|---------------------
E|---------|----------|---------|---------|----------|----------|---------|---------------------

Stave 14:

E|-----------|---------|----------|---------|-----------|---------|----------|---------|-
B|-----------|---------|----------|---------|-----------|---------|----------|---------|-
G|----10-9-8-|-9-8-7-6-|----6-7-8-|-9-8-7-6-|----10-9-8-|-9-8-7-6-|----6-7-8-|-9-8-7-6-|-
D|-10--------|---------|-10-------|---------|-10--------|---------|-10-------|---------|-
A|-----------|---------|----------|---------|-----------|---------|----------|---------|-
E|-----------|---------|----------|---------|-----------|---------|----------|---------|-

Stave 15:

E|----------|----------|----------|---------|----------|----------|---------|----------|-
B|----------|----------|----------|---------|----------|----------|---7-8-9-|-10-9-8-7-|-
G|-7-6------|----6-7-8-|-9-10-9-8-|-9-8-7-6-|-7-6------|----6-7-8-|-9-------|----------|-
D|-----10-9-|-10-------|----------|---------|-----10-9-|-10-------|---------|----------|-
A|----------|----------|----------|---------|----------|----------|---------|----------|-
E|----------|----------|----------|---------|----------|----------|---------|----------|-

Stave 16:

E|--------------|----------|----------|----------|------------|----------|----------|----------
B|------11-10-9-|-10-9-8-7-|----7-8-9-|-10-9-8-7-|----11-10-9-|-10-9-8-7-|----7-8-9-|-10-9-8-7-
G|---10---------|----------|-10-------|----------|-10---------|----------|-10-------|----------
D|--------------|----------|----------|----------|------------|----------|----------|----------
A|--------------|----------|----------|----------|------------|----------|----------|----------
E|--------------|----------|----------|----------|------------|----------|----------|----------

Stave 17:

E|----------|----------|------------|-
B|-8-7------|----7-8-9-|-10-11-10-9-|-
G|-----10-9-|-10-------|------------|-
D|----------|----------|------------|-
A|----------|----------|------------|-
E|----------|----------|------------|-

Stave 18:

E|-
B|-
G|-
D|-
A|-
E|-

Stave 19:

E|-
B|-
G|-
D|-
A|-
E|-

Stave 20:

E|-
B|-
G|-
D|-
A|-
E|-

http://www.guitartabcreator.com
Guitar Tab Creator is intended to store guitar tab created through the tool. It currently does not support in-line text editing. Any text you place in here will be lost. If you need to comment on your tab, please use the "Tab Notes" section located below.