Sound will begin in 5 seconds

Your Grace Is Enough

01234567891011121314151617181920212223
E
B
G
D
A
E
B
0 1 2 3 4 5 6 7 8 9 10 11 12 13 14 15 16 17 18 19 20 21 22 23
Song Science #1: How Pros Use 6 Chords to Write Hit Songs
(/) Slide Up  (\) Slide Down  (h) Hammer On  (p) Pull Off  (b) Bend (r) Release (v) Vibrato

Stave 1:

E|-----------------------------------------------------------------------------------------------------
B|--8--8--8--10--10--7--7--8--8--10--10--7--7--8--8--8--8--7--7--5--5--3--3--8--8--7--7--8--8--12--12--
G|-----------------------------------------------------------------------------------------------------
D|-----------------------------------------------------------------------------------------------------
A|-----------------------------------------------------------------------------------------------------
E|-----------------------------------------------------------------------------------------------------

Stave 2:

E|------------------------------------------------------------------------------------------------------
B|--8--8--8--10--10--7--7--8--8--10--10--7--7--8--8--8--12--12--12--12--12--10--10--10--12--12--13--13--
G|------------------------------------------------------------------------------------------------------
D|------------------------------------------------------------------------------------------------------
A|------------------------------------------------------------------------------------------------------
E|------------------------------------------------------------------------------------------------------

Stave 3:

E|----------
B|-------0--
G|--4----5--
D|--5----5--
A|--x----3--
E|--3-------

Stave 4:

E|--------------------------------------------------------------------------------------------------
B|--------------------------------------------------------------------------------------------------
G|--4--------4--------4-----4--------4--------4-----5--------5--------5-----5--------5--------5-----
D|-----5--5-----5--5-----5-----5--5-----5--5-----5-----5--5-----5--5-----5-----5--5-----5--5-----5--
A|--------------------------------------------------------------------------------------------------
E|--------------------------------------------------------------------------------------------------

Stave 5:

E|-----------------------------------------------------
B|-----------------------------------------------------
G|-----5--5--5-----7--7--7-----9--9--9-----11--11--11--
D|--x-----------x-----------x-----------x--------------
A|--x--3--3--3--x--5--5--5--x--7--7--7--x--9---9---9---
E|--x-----------x-----------x-----------x--------------

Stave 6:

E|--------------------------
B|--------------------------
G|-----7--9--5-----7--5--5--
D|--5--7--9--5--5--7--5--5--
A|--5--5--7--3--5--5--3--3--
E|--3-----------3-----------

Stave 7:

E|--------------------------------------------------------------------------
B|--------------------------------------------------------------------------
G|--0--------0--------0-----2--------2--------2-----4--------4--------4-----
D|-----2--2-----2--2-----2-----4--4-----4--4-----4-----5--5-----5--5-----5--
A|--------------------------------------------------------------------------
E|--------------------------------------------------------------------------

Stave 8:

E|---------------------------------------------------------------------------------
B|---------------------------------------------------------------------------------
G|--5--------5--------5-----7--------7--------7-----9----------11----------12------
D|-----7--7-----7--7-----7-----9--9-----9--9-----9-----10--10------12--12------12--
A|---------------------------------------------------------------------------------
E|---------------------------------------------------------------------------------

http://www.guitartabcreator.com
Guitar Tab Creator is intended to store guitar tab created through the tool. It currently does not support in-line text editing. Any text you place in here will be lost. If you need to comment on your tab, please use the "Tab Notes" section located below.