Sound will begin in 5 seconds

Always

01234567891011121314151617181920212223
E
B
G
D
A
E
B
0 1 2 3 4 5 6 7 8 9 10 11 12 13 14 15 16 17 18 19 20 21 22 23
Song Science #1: How Pros Use 6 Chords to Write Hit Songs
(/) Slide Up  (\) Slide Down  (h) Hammer On  (p) Pull Off  (b) Bend (r) Release (v) Vibrato

Stave 1:

E|----------11-------------
B|--12--14-----------------
G|--------------11--11h13--
D|-------------------------
A|-------------------------
E|-------------------------

Stave 2:

E|----------------------------------------------------------
B|------------12--------------------------12----------------
G|-----11------------11-----11-----11------------11-----11--
D|--9------9------9------9------9------9------9------9------
A|----------------------------------------------------------
E|----------------------------------------------------------

Stave 3:

E|----------------------------------------------------
B|-----------12-----------------------12--------------
G|-----9------------9-----9-----9------------9-----9--
D|--9-----9------9-----9-----9-----9------9-----9-----
A|----------------------------------------------------
E|----------------------------------------------------

Stave 4:

E|------0----------0----------------------------------------------------------------------
B|------0----------0--------------------------------0-------------0-------------0---------
G|------4----------4------------3------------4--3----4--------4----4------4------4------3--
D|------4----------4------------4------------4--4----4--------4----4------4------4------4--
A|------2----------2------------4------------x--4----2--------2----2------2------2------2--
E|-----------------------------2------------4--2-------------0-----------0-------------2--

Stave 5:

E|--
B|--
G|--
D|--
A|--
E|--

Stave 6:

E|--------------------------------------------------
B|--------------------------------------------------
G|-----------4-----------------------4--------------
D|-----4-----------4-----4-----4-----------4-----4--
A|--2-----2-----2-----2-----2-----2-----2-----2-----
E|--------------------------------------------------

Stave 7:

E|--------------------------------------------------
B|--------------------------------------------------
G|-----------4-----------------------4--------------
D|-----4-----------4-----4-----4-----------4-----4--
A|--------------------------------------------------
E|--0-----0-----0-----0-----0-----0-----0-----0-----

Stave 8:

E|--------------------------------------------------------------------------------------------------
B|--------------------------------------------------------------------------------------------------
G|-----------4-----------------------4-----------------------4-----------------------4--------------
D|-----4-----------4-----4-----4-----------4-----4-----4-----------4-----4-----4-----------4-----4--
A|--------------------------------------------------------------------------------------------------
E|--4-----4-----4-----4-----4-----4-----4-----4-----0-----0-----0-----0-----0-----0-----0-----0-----

Stave 9:

E|--------------
B|----7------7--
G|----8------9--
D|----9------9--
A|----9------7--
E|----7---------

Stave 10:

E|--------------------------------------------------------------------------------------------------
B|--------------------------------------------------------------------------------------------------
G|--7--7--7--6--6--6--------------------------------7--7--7--6--6--6--------------------------------
D|--------------------7--7--7-----------------------------------------7--7--7--9--9--9--9--9--9--9--
A|-----------------------------7--7--7--7--7--7--7--------------------------------------------------
E|--------------------------------------------------------------------------------------------------

Stave 11:

E|--12--12--12--11--11--11------------------------------------------
B|--------------------------12--12--12------------------------------
G|--------------------------------------11--11--11--11--11--11--11--
D|------------------------------------------------------------------
A|------------------------------------------------------------------
E|------------------------------------------------------------------

Stave 12:

E|--12--12--12--11--11--11------------------------------------------
B|--------------------------12--12--12--14--14--14--14--14--14--14--
G|------------------------------------------------------------------
D|------------------------------------------------------------------
A|------------------------------------------------------------------
E|------------------------------------------------------------------

http://www.guitartabcreator.com
Guitar Tab Creator is intended to store guitar tab created through the tool. It currently does not support in-line text editing. Any text you place in here will be lost. If you need to comment on your tab, please use the "Tab Notes" section located below.