Sound will begin in 5 seconds

How ?

01234567891011121314151617181920212223
E
B
G
D
A
E
B
0 1 2 3 4 5 6 7 8 9 10 11 12 13 14 15 16 17 18 19 20 21 22 23
Song Science #1: How Pros Use 6 Chords to Write Hit Songs
(/) Slide Up  (\) Slide Down  (h) Hammer On  (p) Pull Off  (b) Bend (r) Release (v) Vibrato

Stave 1:

E|--------------------------------------------------
B|-----------0--------------0-----2-----2-----4--0--
G|--------2-----2--------1-----1--2-----2-----4--2--
D|-----2--------------2--------------------------2--
A|--0--------------------------------------------0--
E|-----------------0--------------2--2-----2--4-----

Stave 2:

E|--------------------------------------------------------
B|-----------0--------------0--------------0-----2--3--4--
G|--------2-----2--------2-----2--------2-----2--2--3--4--
D|-----2--------------2--------------2-----------2--3--4--
A|--0--------------0--------------0--------------0--1--2--
E|--------------------------------------------------------

Stave 3:

E|--4--2--0--0--2--4--0--0--2--4--4--0--4--4--
B|--5--4--2--0--2--4--2--2--2--4--5--2--4--4--
G|--6--4--2--1--2--4--2--2--2--4--6--2--4--4--
D|--6--4--2--2--4--6--2--2--4--6--6--2--6--6--
A|--4--2--0--2--4--6--0--0--4--6--4--0--6--6--
E|-----------0--2--4--------2--4--------4--4--

Stave 4:

E|--4--2--0--2--4--2--0--2--4--
B|--5--4--2--2--4--4--2--2--4--
G|--6--4--2--2--4--4--2--2--4--
D|--6--4--2--4--6--4--2--4--6--
A|--4--2--0--4--6--2--0--4--6--
E|-----------2--4--------2--4--

Stave 5:

E|-----5-----4--
B|-----5-----4--
G|-----6-----4--
D|-----7-----6--
A|-----7-----6--
E|--5--5--4--4--

Stave 6:

E|--4----4----2----4----5----0----2--
B|--4----5----4----4----5----0----2--
G|--4----6----4----4----6----1----2--
D|--6----6----4----6----7----2----4--
A|--6----4----2----6----7----2----4--
E|--4--------------4----5----0----2--

Stave 7:

E|--4--2--0--2--
B|--4--4--2--2--
G|--4--4--2--2--
D|--6--4--2--4--
A|--6--2--0--4--
E|--4--------2--

http://www.guitartabcreator.com
Guitar Tab Creator is intended to store guitar tab created through the tool. It currently does not support in-line text editing. Any text you place in here will be lost. If you need to comment on your tab, please use the "Tab Notes" section located below.