Sound will begin in 5 seconds

YarokTZaovAdom

Chords
01234567891011121314151617181920212223
E
B
G
D
A
E
B
0 1 2 3 4 5 6 7 8 9 10 11 12 13 14 15 16 17 18 19 20 21 22 23
Song Science #1: How Pros Use 6 Chords to Write Hit Songs
(/) Slide Up  (\) Slide Down  (h) Hammer On  (p) Pull Off  (b) Bend (r) Release (v) Vibrato

Stave 1:

E|-6-4--------------------------------------------|-------------------------------|-|-
B|-----6/9b11-------------------------------------|-------------------------------|-|-
G|---------------8p6-8p6-8p6-8b9r8-6----------6---|-------------------------------|-|-
D|-----------------------------------8----6-8---8-|-8-6---6h8----6----------------|-|-
A|------------------------------------------------|-----8----------8-6----4---4---|-|-
E|------------------------------------------------|-------------------------6---6-|-|-

Stave 2:

E|-----4--------4----6-4--------9-9-6-9-6-9b11-9\0-|-12-11-9----12-11-9---------------9---------------|-|-
B|-----6--------4--------6/9b11--------------------|---------11---------11----11-9-11---11-9----------|-|-
G|---7--------5------------------------------------|-----------------------------------------10\8-6---|-|-
D|-8--------6--------------------------------------|------------------------------------------------8-|-|-
A|-------------------------------------------------|------------------------------------------------8-|-|-
E|-------------------------------------------------|--------------------------------------------------|-|-

http://www.guitartabcreator.com
Guitar Tab Creator is intended to store guitar tab created through the tool. It currently does not support in-line text editing. Any text you place in here will be lost. If you need to comment on your tab, please use the "Tab Notes" section located below.