Sound will begin in 5 seconds

ShirLeloSHem

01234567891011121314151617181920212223
E
B
G
D
A
E
B
0 1 2 3 4 5 6 7 8 9 10 11 12 13 14 15 16 17 18 19 20 21 22 23
Song Science #1: How Pros Use 6 Chords to Write Hit Songs
(/) Slide Up  (\) Slide Down  (h) Hammer On  (p) Pull Off  (b) Bend (r) Release (v) Vibrato

Stave 1:

E|--15--15--15--13--12------------------------------------------------------------------------------------------------------|--
B|--------------------------------------------------------------------------------------------------------------------------|--
G|---------------------------------------12---------------------------12------------------------12--------------------------|--
D|----------------------12-----12h14h16------16--14--16-----12h14h16------16--14--16--12h14h16------16--14--16--14--12--11--|--
A|--------------------------------------------------------------------------------------------------------------------------|--
E|--------------------------------------------------------------------------------------------------------------------------|--

Stave 2:

E|------------------------------------------------------------------------------10--10h13--10---------------------------------------|--
B|---------------------------------------------------------------------------------------------13--10\8------8------8--9--8---------|--
G|--14b16r14--12----------12--14b16r14--12---------------------------------------------------------------10-----10-----------10--7--|--
D|----------------16--16--------------------16------16\14--16b17r16--14--12---------------------------------------------------------|--
A|----------------------------------------------17----------------------------------------------------------------------------------|--
E|----------------------------------------------------------------------------------------------------------------------------------|--

http://www.guitartabcreator.com
Guitar Tab Creator is intended to store guitar tab created through the tool. It currently does not support in-line text editing. Any text you place in here will be lost. If you need to comment on your tab, please use the "Tab Notes" section located below.