Sound will begin in 5 seconds

MenagenVeshar Solo

01234567891011121314151617181920212223
E
B
G
D
A
E
B
0 1 2 3 4 5 6 7 8 9 10 11 12 13 14 15 16 17 18 19 20 21 22 23
Song Science #1: How Pros Use 6 Chords to Write Hit Songs
(/) Slide Up  (\) Slide Down  (h) Hammer On  (p) Pull Off  (b) Bend (r) Release (v) Vibrato

Stave 1:

E|-6b8-6-3-------------------------|---------8---------8-11-13-11-13b15r13-11-13-11-|-10-10-10-10-11-13b15-|-
B|---------6-4---4-6b8r6-4h6-4-3---|-------8---8-11b13------------------------------|----------------------|-
G|-------------5-----------------5-|-10b12------------------------------------------|----------------------|-
D|---------------------------------|------------------------------------------------|----------------------|-
A|---------------------------------|------------------------------------------------|----------------------|-
E|---------------------------------|------------------------------------------------|----------------------|-

Stave 2:

E|--------------------------------------------------|----------------------------|-
B|-9-9-9-9-8----------------------------------------|--------------------8-7-6-4-|-
G|-----------10-8----8-10-8-11p10p8----8-10-8-10b12-|-------------8-10-8---------|-
D|----------------10----------------10--------------|--------8-10----------------|-
A|--------------------------------------------------|-8h9h10---------------------|-
E|--------------------------------------------------|----------------------------|-

Stave 3:

E|-----11p8---11p8---11p8---11p8---11/13-11-13b15----15r13-11\|-
B|-4/8------8------8------8------8----------------------------|-
G|------------------------------------------------------------|-
D|------------------------------------------------------------|-
A|------------------------------------------------------------|-
E|------------------------------------------------------------|-

http://www.guitartabcreator.com
Guitar Tab Creator is intended to store guitar tab created through the tool. It currently does not support in-line text editing. Any text you place in here will be lost. If you need to comment on your tab, please use the "Tab Notes" section located below.