Sound will begin in 5 seconds

MenagenVeshar Intro

Chords
01234567891011121314151617181920212223
E
B
G
D
A
E
B
0 1 2 3 4 5 6 7 8 9 10 11 12 13 14 15 16 17 18 19 20 21 22 23
Song Science #1: How Pros Use 6 Chords to Write Hit Songs
(/) Slide Up  (\) Slide Down  (h) Hammer On  (p) Pull Off  (b) Bend (r) Release (v) Vibrato

Stave 1:

E|---1-3-4---6-8---10-11----
B|-0-1-3-4---6-8-9----11-12-
G|-0-1-3-4-5---8---10----12-
D|-0-1-3---5-6-8-9-10----12-
A|-----3---5-6-8---10-11----
E|---1-3-4---6-8---10-11----

Stave 2:

E|-3-4-6-3-6/7-6-4-3h4p3---3-3h4p3---3-----------------------------------------
B|-----------------------6---------6---6-4-3h4p3---3---------------------------
G|-----------------------------------------------5---5-4-----------------------
D|-------------------------------------------------------6-5-5h6p5-3-5h6p5-3-5/
A|-----------------------------------------------------------------------------
E|-----------------------------------------------------------------------------

Stave 3:

E|-----------------------------3-4-6-4-3--------------------------------8-
B|-----------------------3-4-6-----------6-4-3--------------------------8\
G|-------------------4-5-----------------------5-4------------------------
D|-------------3-5-6-------------------------------6-5-3------------------
A|-------3-5-6-------------------------------------------6-5-3------------
E|-3-4-6-------------------------------------------------------6-4-3------

http://www.guitartabcreator.com
Guitar Tab Creator is intended to store guitar tab created through the tool. It currently does not support in-line text editing. Any text you place in here will be lost. If you need to comment on your tab, please use the "Tab Notes" section located below.