Summertime Solo

(/) Slide Up  (\) Slide Down  (h) Hammer On  (p) Pull Off  (b) Bend (r) Release (v) Vibrato


E|--9--6-------------------------8--6--|----------------------------|--
B|--------9--6----------6--------------|----------------------------|--
G|--------------8--6h8-----8--6--------|-------6h8/9--6h8/9\8--6\5--|--
D|-------------------------------------|--6h8-----------------------|--
A|-------------------------------------|----------------------------|--
E|-------------------------------------|----------------------------|--



E|--9--6--------8----------6--------------|------------------------------------|--
B|--------9--6-------6--9-----9--6--------|------------------------------------|--
G|----------------------------------8--5--|--------6--8--9----8h9p8----5-------|--
D|----------------------------------------|--6--8-------------------------6/8--|--
A|----------------------------------------|------------------------------------|--
E|----------------------------------------|------------------------------------|--
http://www.guitartabcreator.com
Guitar Tab Creator is intended to store guitar tab created through the tool. It currently does not support in-line text editing. Any text you place in here will be lost. If you need to comment on your tab, please use the "Tab Notes" section located below.